ISO-10303-21;
HEADER;
FILE_DESCRIPTION (( 'STEP AP214' ),
    '1' );
FILE_NAME ('191825.STEP',
    '2020-02-13T11:24:42',
    ( '' ),
    ( '' ),
    'SwSTEP 2.0',
    'SolidWorks 2018',
    '' );
FILE_SCHEMA (( 'AUTOMOTIVE_DESIGN' ));
ENDSEC;

DATA;
#1 = ORIENTED_EDGE ( 'NONE', *, *, #30, .T. ) ;
#2 = MECHANICAL_DESIGN_GEOMETRIC_PRESENTATION_REPRESENTATION (  '', ( #56 ), #12 ) ;
#3 = ORIENTED_EDGE ( 'NONE', *, *, #192, .F. ) ;
#4 = EDGE_CURVE ( 'NONE', #28, #47, #8, .T. ) ;
#5 = ORIENTED_EDGE ( 'NONE', *, *, #226, .F. ) ;
#6 = AXIS2_PLACEMENT_3D ( 'NONE', #220, #327, #149 ) ;
#7 = VECTOR ( 'NONE', #213, 1000.000000000000000 ) ;
#8 = LINE ( 'NONE', #328, #125 ) ;
#9 = EDGE_CURVE ( 'NONE', #136, #150, #201, .T. ) ;
#10 = ADVANCED_FACE ( 'NONE', ( #274 ), #214, .F. ) ;
#11 = EDGE_LOOP ( 'NONE', ( #257, #163, #144, #18 ) ) ;
#12 =( GEOMETRIC_REPRESENTATION_CONTEXT ( 3 ) GLOBAL_UNCERTAINTY_ASSIGNED_CONTEXT ( ( #111 ) ) GLOBAL_UNIT_ASSIGNED_CONTEXT ( ( #102, #221, #178 ) ) REPRESENTATION_CONTEXT ( 'NONE', 'WORKASPACE' ) );
#13 = DIRECTION ( 'NONE',  ( 0.0000000000000000000, -0.0000000000000000000, -1.000000000000000000 ) ) ;
#14 = DIRECTION ( 'NONE',  ( 0.0000000000000000000, 0.0000000000000000000, 1.000000000000000000 ) ) ;
#15 = CARTESIAN_POINT ( 'NONE',  ( 78.00000000000000000, -1.999999999999998668, -10.00000000000000000 ) ) ;
#16 = ADVANCED_FACE ( 'NONE', ( #85 ), #243, .F. ) ;
#17 = VECTOR ( 'NONE', #281, 1000.000000000000000 ) ;
#18 = ORIENTED_EDGE ( 'NONE', *, *, #4, .F. ) ;
#19 = DIRECTION ( 'NONE',  ( -0.0000000000000000000, 0.0000000000000000000, 1.000000000000000000 ) ) ;
#20 = CARTESIAN_POINT ( 'NONE',  ( 78.00000000000000000, 2.000000000000001332, -10.00000000000000000 ) ) ;
#21 = EDGE_LOOP ( 'NONE', ( #53, #161, #216, #280, #59, #225, #209, #210 ) ) ;
#22 = CARTESIAN_POINT ( 'NONE',  ( 78.00000000000000000, 0.7500000000000013323, -10.00000000000000000 ) ) ;
#23 = EDGE_CURVE ( 'NONE', #259, #136, #139, .T. ) ;
#24 = DIRECTION ( 'NONE',  ( 0.0000000000000000000, 0.0000000000000000000, -1.000000000000000000 ) ) ;
#25 = DIRECTION ( 'NONE',  ( 0.0000000000000000000, 0.0000000000000000000, 1.000000000000000000 ) ) ;
#26 =( GEOMETRIC_REPRESENTATION_CONTEXT ( 3 ) GLOBAL_UNCERTAINTY_ASSIGNED_CONTEXT ( ( #77 ) ) GLOBAL_UNIT_ASSIGNED_CONTEXT ( ( #167, #296, #245 ) ) REPRESENTATION_CONTEXT ( 'NONE', 'WORKASPACE' ) );
#27 = APPLICATION_CONTEXT ( 'automotive_design' ) ;
#28 = VERTEX_POINT ( 'NONE', #191 ) ;
#29 = VERTEX_POINT ( 'NONE', #212 ) ;
#30 = EDGE_CURVE ( 'NONE', #173, #115, #31, .T. ) ;
#31 = LINE ( 'NONE', #269, #204 ) ;
#32 = ORIENTED_EDGE ( 'NONE', *, *, #208, .T. ) ;
#33 = PRODUCT_DEFINITION_FORMATION_WITH_SPECIFIED_SOURCE ( 'ANY', '', #170, .NOT_KNOWN. ) ;
#34 = LINE ( 'NONE', #42, #7 ) ;
#35 = MECHANICAL_DESIGN_GEOMETRIC_PRESENTATION_REPRESENTATION (  '', ( #181 ), #326 ) ;
#36 = ORIENTED_EDGE ( 'NONE', *, *, #232, .T. ) ;
#37 = DIRECTION ( 'NONE',  ( 0.0000000000000000000, -0.0000000000000000000, 1.000000000000000000 ) ) ;
#38 = DIRECTION ( 'NONE',  ( -0.0000000000000000000, -0.0000000000000000000, -1.000000000000000000 ) ) ;
#39 = CARTESIAN_POINT ( 'NONE',  ( -6.000000000000000000, -0.7499999999999986677, -10.00000000000000000 ) ) ;
#40 = PLANE ( 'NONE',  #321 ) ;
#41 = VECTOR ( 'NONE', #276, 1000.000000000000000 ) ;
#42 = CARTESIAN_POINT ( 'NONE',  ( 78.00000000000000000, -0.7499999999999986677, -10.00000000000000000 ) ) ;
#43 = EDGE_CURVE ( 'NONE', #315, #173, #110, .T. ) ;
#44 = VECTOR ( 'NONE', #244, 1000.000000000000000 ) ;
#45 = DIRECTION ( 'NONE',  ( -0.0000000000000000000, 1.000000000000000000, -0.0000000000000000000 ) ) ;
#46 = ORIENTED_EDGE ( 'NONE', *, *, #4, .T. ) ;
#47 = VERTEX_POINT ( 'NONE', #272 ) ;
#48 = UNCERTAINTY_MEASURE_WITH_UNIT (LENGTH_MEASURE( 1.000000000000000082E-05 ), #227, 'distance_accuracy_value', 'NONE');
#49 = DIRECTION ( 'NONE',  ( -1.000000000000000000, 0.0000000000000000000, -0.0000000000000000000 ) ) ;
#50 = PRESENTATION_LAYER_ASSIGNMENT (  '', '', ( #181 ) ) ;
#51 = FACE_OUTER_BOUND ( 'NONE', #21, .T. ) ;
#52 = CARTESIAN_POINT ( 'NONE',  ( -6.000000000000000000, 2.000000000000001332, 0.0000000000000000000 ) ) ;
#53 = ORIENTED_EDGE ( 'NONE', *, *, #235, .F. ) ;
#54 = CARTESIAN_POINT ( 'NONE',  ( 0.0000000000000000000, 0.0000000000000000000, 0.0000000000000000000 ) ) ;
#55 = PRODUCT_DEFINITION_CONTEXT ( 'detailed design', #27, 'design' ) ;
#56 = STYLED_ITEM ( 'NONE', ( #262 ), #130 ) ;
#57 = LINE ( 'NONE', #153, #233 ) ;
#58 = VERTEX_POINT ( 'NONE', #123 ) ;
#59 = ORIENTED_EDGE ( 'NONE', *, *, #304, .F. ) ;
#60 = SHAPE_DEFINITION_REPRESENTATION ( #176, #200 ) ;
#61 = LINE ( 'NONE', #104, #17 ) ;
#62 = ORIENTED_EDGE ( 'NONE', *, *, #9, .T. ) ;
#63 = ADVANCED_FACE ( 'NONE', ( #319 ), #169, .F. ) ;
#64 = COLOUR_RGB ( '',0.7921568627450980005, 0.8196078431372548767, 0.9333333333333333481 ) ;
#65 = PRODUCT_RELATED_PRODUCT_CATEGORY ( 'part', '', ( #170 ) ) ;
#66 = ORIENTED_EDGE ( 'NONE', *, *, #226, .T. ) ;
#67 = DIRECTION ( 'NONE',  ( -0.0000000000000000000, -0.0000000000000000000, -1.000000000000000000 ) ) ;
#68 = AXIS2_PLACEMENT_3D ( 'NONE', #218, #271, #164 ) ;
#69 = DIRECTION ( 'NONE',  ( -0.0000000000000000000, 1.000000000000000000, -0.0000000000000000000 ) ) ;
#70 = CARTESIAN_POINT ( 'NONE',  ( -6.000000000000000000, -1.999999999999998668, -10.00000000000000000 ) ) ;
#71 = LINE ( 'NONE', #20, #294 ) ;
#72 = ORIENTED_EDGE ( 'NONE', *, *, #282, .T. ) ;
#73 = PLANE ( 'NONE',  #230 ) ;
#74 = VERTEX_POINT ( 'NONE', #325 ) ;
#75 = AXIS2_PLACEMENT_3D ( 'NONE', #263, #300, #126 ) ;
#76 = FILL_AREA_STYLE ('',( #199 ) ) ;
#77 = UNCERTAINTY_MEASURE_WITH_UNIT (LENGTH_MEASURE( 1.000000000000000082E-05 ), #167, 'distance_accuracy_value', 'NONE');
#78 = VECTOR ( 'NONE', #38, 1000.000000000000000 ) ;
#79 = PLANE ( 'NONE',  #279 ) ;
#80 = DIRECTION ( 'NONE',  ( -0.0000000000000000000, 1.000000000000000000, -0.0000000000000000000 ) ) ;
#81 = SURFACE_SIDE_STYLE ('',( #148 ) ) ;
#82 = EDGE_LOOP ( 'NONE', ( #135, #107, #239, #141 ) ) ;
#83 = APPLICATION_PROTOCOL_DEFINITION ( 'draft international standard', 'automotive_design', 1998, #27 ) ;
#84 = EDGE_CURVE ( 'NONE', #74, #185, #95, .T. ) ;
#85 = FACE_OUTER_BOUND ( 'NONE', #155, .T. ) ;
#86 = VECTOR ( 'NONE', #91, 1000.000000000000000 ) ;
#87 = ORIENTED_EDGE ( 'NONE', *, *, #208, .F. ) ;
#88 = DIRECTION ( 'NONE',  ( 0.0000000000000000000, -1.000000000000000000, 0.0000000000000000000 ) ) ;
#89 = VERTEX_POINT ( 'NONE', #118 ) ;
#90 = DIRECTION ( 'NONE',  ( -0.0000000000000000000, 1.000000000000000000, 0.0000000000000000000 ) ) ;
#91 = DIRECTION ( 'NONE',  ( -1.000000000000000000, -0.0000000000000000000, -0.0000000000000000000 ) ) ;
#92 = DIRECTION ( 'NONE',  ( -1.000000000000000000, -0.0000000000000000000, -0.0000000000000000000 ) ) ;
#93 = LINE ( 'NONE', #334, #306 ) ;
#94 = DIRECTION ( 'NONE',  ( 0.0000000000000000000, -1.000000000000000000, 0.0000000000000000000 ) ) ;
#95 = LINE ( 'NONE', #15, #78 ) ;
#96 = CARTESIAN_POINT ( 'NONE',  ( 78.00000000000000000, 2.000000000000001332, -10.00000000000000000 ) ) ;
#97 = DIRECTION ( 'NONE',  ( 1.000000000000000000, 0.0000000000000000000, 0.0000000000000000000 ) ) ;
#98 = EDGE_CURVE ( 'NONE', #47, #29, #99, .T. ) ;
#99 = LINE ( 'NONE', #116, #157 ) ;
#100 = CARTESIAN_POINT ( 'NONE',  ( 78.00000000000000000, -1.999999999999998668, 0.0000000000000000000 ) ) ;
#101 = CLOSED_SHELL ( 'NONE', ( #206, #10, #265, #63, #261, #237, #290, #16, #198, #323 ) ) ;
#102 =( LENGTH_UNIT ( ) NAMED_UNIT ( * ) SI_UNIT ( .MILLI., .METRE. ) );
#103 = DIRECTION ( 'NONE',  ( 1.000000000000000000, 0.0000000000000000000, 0.0000000000000000000 ) ) ;
#104 = CARTESIAN_POINT ( 'NONE',  ( 78.00000000000000000, -1.999999999999998668, -10.00000000000000000 ) ) ;
#105 = PLANE ( 'NONE',  #317 ) ;
#106 = LINE ( 'NONE', #240, #86 ) ;
#107 = ORIENTED_EDGE ( 'NONE', *, *, #235, .T. ) ;
#108 = CARTESIAN_POINT ( 'NONE',  ( -6.000000000000000000, 0.7500000000000013323, -22.00000000000000000 ) ) ;
#109 = VECTOR ( 'NONE', #14, 1000.000000000000000 ) ;
#110 = LINE ( 'NONE', #188, #234 ) ;
#111 = UNCERTAINTY_MEASURE_WITH_UNIT (LENGTH_MEASURE( 1.000000000000000082E-05 ), #102, 'distance_accuracy_value', 'NONE');
#112 = EDGE_CURVE ( 'NONE', #301, #331, #162, .T. ) ;
#113 = FACE_OUTER_BOUND ( 'NONE', #222, .T. ) ;
#114 = SURFACE_STYLE_USAGE ( .BOTH. , #124 ) ;
#115 = VERTEX_POINT ( 'NONE', #52 ) ;
#116 = CARTESIAN_POINT ( 'NONE',  ( 78.00000000000000000, 0.7500000000000013323, -22.00000000000000000 ) ) ;
#117 = FACE_OUTER_BOUND ( 'NONE', #159, .T. ) ;
#118 = CARTESIAN_POINT ( 'NONE',  ( 78.00000000000000000, 2.000000000000001332, 0.0000000000000000000 ) ) ;
#119 = ORIENTED_EDGE ( 'NONE', *, *, #260, .T. ) ;
#120 = CARTESIAN_POINT ( 'NONE',  ( -6.000000000000000000, -1.999999999999998668, 0.0000000000000000000 ) ) ;
#121 = CARTESIAN_POINT ( 'NONE',  ( 78.00000000000000000, 2.000000000000001332, -10.00000000000000000 ) ) ;
#122 = CARTESIAN_POINT ( 'NONE',  ( -6.000000000000000000, 0.7500000000000013323, -22.00000000000000000 ) ) ;
#123 = CARTESIAN_POINT ( 'NONE',  ( -6.000000000000000000, -0.7499999999999986677, -22.00000000000000000 ) ) ;
#124 = SURFACE_SIDE_STYLE ('',( #129 ) ) ;
#125 = VECTOR ( 'NONE', #142, 1000.000000000000000 ) ;
#126 = DIRECTION ( 'NONE',  ( 0.0000000000000000000, -0.0000000000000000000, -1.000000000000000000 ) ) ;
#127 = AXIS2_PLACEMENT_3D ( 'NONE', #54, #180, #103 ) ;
#128 = CARTESIAN_POINT ( 'NONE',  ( -6.000000000000000000, 2.000000000000001332, -10.00000000000000000 ) ) ;
#129 = SURFACE_STYLE_FILL_AREA ( #324 ) ;
#130 = MANIFOLD_SOLID_BREP ( 'Aufsatz-Linear austragen1', #101 ) ;
#131 = DIRECTION ( 'NONE',  ( 0.0000000000000000000, 0.0000000000000000000, -1.000000000000000000 ) ) ;
#132 = CARTESIAN_POINT ( 'NONE',  ( 78.00000000000000000, 2.000000000000001332, 0.0000000000000000000 ) ) ;
#133 = ORIENTED_EDGE ( 'NONE', *, *, #98, .T. ) ;
#134 = LINE ( 'NONE', #332, #182 ) ;
#135 = ORIENTED_EDGE ( 'NONE', *, *, #241, .T. ) ;
#136 = VERTEX_POINT ( 'NONE', #228 ) ;
#137 = VECTOR ( 'NONE', #278, 1000.000000000000000 ) ;
#138 = VECTOR ( 'NONE', #131, 1000.000000000000000 ) ;
#139 = LINE ( 'NONE', #70, #264 ) ;
#140 = ORIENTED_EDGE ( 'NONE', *, *, #23, .T. ) ;
#141 = ORIENTED_EDGE ( 'NONE', *, *, #232, .F. ) ;
#142 = DIRECTION ( 'NONE',  ( 0.0000000000000000000, 1.000000000000000000, 0.0000000000000000000 ) ) ;
#143 = EDGE_CURVE ( 'NONE', #74, #259, #194, .T. ) ;
#144 = ORIENTED_EDGE ( 'NONE', *, *, #329, .F. ) ;
#145 = CARTESIAN_POINT ( 'NONE',  ( 78.00000000000000000, -0.7499999999999986677, -10.00000000000000000 ) ) ;
#146 = DIRECTION ( 'NONE',  ( 0.0000000000000000000, 0.0000000000000000000, 1.000000000000000000 ) ) ;
#147 = AXIS2_PLACEMENT_3D ( 'NONE', #121, #94, #13 ) ;
#148 = SURFACE_STYLE_FILL_AREA ( #76 ) ;
#149 = DIRECTION ( 'NONE',  ( 1.000000000000000000, 0.0000000000000000000, -0.0000000000000000000 ) ) ;
#150 = VERTEX_POINT ( 'NONE', #174 ) ;
#151 = CARTESIAN_POINT ( 'NONE',  ( 78.00000000000000000, 2.000000000000001332, -10.00000000000000000 ) ) ;
#152 = ORIENTED_EDGE ( 'NONE', *, *, #219, .T. ) ;
#153 = CARTESIAN_POINT ( 'NONE',  ( 78.00000000000000000, -0.7499999999999986677, -10.00000000000000000 ) ) ;
#154 = LINE ( 'NONE', #247, #309 ) ;
#155 = EDGE_LOOP ( 'NONE', ( #248, #1, #187, #310 ) ) ;
#156 =( NAMED_UNIT ( * ) PLANE_ANGLE_UNIT ( ) SI_UNIT ( $, .RADIAN. ) );
#157 = VECTOR ( 'NONE', #25, 1000.000000000000000 ) ;
#158 = ORIENTED_EDGE ( 'NONE', *, *, #329, .T. ) ;
#159 = EDGE_LOOP ( 'NONE', ( #287, #196, #285, #311 ) ) ;
#160 = LINE ( 'NONE', #252, #138 ) ;
#161 = ORIENTED_EDGE ( 'NONE', *, *, #30, .F. ) ;
#162 = LINE ( 'NONE', #108, #137 ) ;
#163 = ORIENTED_EDGE ( 'NONE', *, *, #304, .T. ) ;
#164 = DIRECTION ( 'NONE',  ( 0.0000000000000000000, -0.0000000000000000000, 1.000000000000000000 ) ) ;
#165 = AXIS2_PLACEMENT_3D ( 'NONE', #145, #90, #37 ) ;
#166 = FACE_OUTER_BOUND ( 'NONE', #205, .T. ) ;
#167 =( LENGTH_UNIT ( ) NAMED_UNIT ( * ) SI_UNIT ( .MILLI., .METRE. ) );
#168 = ORIENTED_EDGE ( 'NONE', *, *, #84, .T. ) ;
#169 = PLANE ( 'NONE',  #165 ) ;
#170 = PRODUCT ( '191825', '191825', '', ( #255 ) ) ;
#171 = DIRECTION ( 'NONE',  ( -0.0000000000000000000, 0.0000000000000000000, 1.000000000000000000 ) ) ;
#172 = LINE ( 'NONE', #293, #41 ) ;
#173 = VERTEX_POINT ( 'NONE', #128 ) ;
#174 = CARTESIAN_POINT ( 'NONE',  ( -6.000000000000000000, -0.7499999999999986677, -10.00000000000000000 ) ) ;
#175 = CARTESIAN_POINT ( 'NONE',  ( 78.00000000000000000, 2.000000000000001332, 0.0000000000000000000 ) ) ;
#176 = PRODUCT_DEFINITION_SHAPE ( 'NONE', 'NONE',  #189 ) ;
#177 = EDGE_CURVE ( 'NONE', #185, #183, #57, .T. ) ;
#178 =( NAMED_UNIT ( * ) SI_UNIT ( $, .STERADIAN. ) SOLID_ANGLE_UNIT ( ) );
#179 = VECTOR ( 'NONE', #69, 1000.000000000000000 ) ;
#180 = DIRECTION ( 'NONE',  ( 0.0000000000000000000, 0.0000000000000000000, 1.000000000000000000 ) ) ;
#181 = STYLED_ITEM ( 'NONE', ( #286 ), #200 ) ;
#182 = VECTOR ( 'NONE', #249, 1000.000000000000000 ) ;
#183 = VERTEX_POINT ( 'NONE', #307 ) ;
#184 = LINE ( 'NONE', #295, #179 ) ;
#185 = VERTEX_POINT ( 'NONE', #303 ) ;
#186 = VECTOR ( 'NONE', #246, 1000.000000000000000 ) ;
#187 = ORIENTED_EDGE ( 'NONE', *, *, #241, .F. ) ;
#188 = CARTESIAN_POINT ( 'NONE',  ( 78.00000000000000000, 2.000000000000001332, -10.00000000000000000 ) ) ;
#189 = PRODUCT_DEFINITION ( 'UNKNOWN', '', #33, #55 ) ;
#190 = PLANE ( 'NONE',  #224 ) ;
#191 = CARTESIAN_POINT ( 'NONE',  ( 78.00000000000000000, -0.7499999999999986677, -22.00000000000000000 ) ) ;
#192 = EDGE_CURVE ( 'NONE', #29, #331, #322, .T. ) ;
#193 = DIRECTION ( 'NONE',  ( 0.0000000000000000000, 0.0000000000000000000, 1.000000000000000000 ) ) ;
#194 = LINE ( 'NONE', #100, #256 ) ;
#195 = FILL_AREA_STYLE_COLOUR ( '', #299 ) ;
#196 = ORIENTED_EDGE ( 'NONE', *, *, #273, .T. ) ;
#197 = CARTESIAN_POINT ( 'NONE',  ( 78.00000000000000000, 2.000000000000001332, -10.00000000000000000 ) ) ;
#198 = ADVANCED_FACE ( 'NONE', ( #330 ), #79, .F. ) ;
#199 = FILL_AREA_STYLE_COLOUR ( '', #64 ) ;
#200 = ADVANCED_BREP_SHAPE_REPRESENTATION ( '191825', ( #130, #127 ), #26 ) ;
#201 = LINE ( 'NONE', #39, #186 ) ;
#202 =( NAMED_UNIT ( * ) SI_UNIT ( $, .STERADIAN. ) SOLID_ANGLE_UNIT ( ) );
#203 = ORIENTED_EDGE ( 'NONE', *, *, #177, .F. ) ;
#204 = VECTOR ( 'NONE', #146, 1000.000000000000000 ) ;
#205 = EDGE_LOOP ( 'NONE', ( #158, #302, #3, #267 ) ) ;
#206 = ADVANCED_FACE ( 'NONE', ( #318 ), #105, .F. ) ;
#207 = VECTOR ( 'NONE', #254, 1000.000000000000000 ) ;
#208 = EDGE_CURVE ( 'NONE', #185, #136, #61, .T. ) ;
#209 = ORIENTED_EDGE ( 'NONE', *, *, #9, .F. ) ;
#210 = ORIENTED_EDGE ( 'NONE', *, *, #23, .F. ) ;
#211 = CARTESIAN_POINT ( 'NONE',  ( -6.000000000000000000, 0.0000000000000000000, 0.0000000000000000000 ) ) ;
#212 = CARTESIAN_POINT ( 'NONE',  ( 78.00000000000000000, 0.7500000000000013323, -10.00000000000000000 ) ) ;
#213 = DIRECTION ( 'NONE',  ( -1.000000000000000000, -0.0000000000000000000, -0.0000000000000000000 ) ) ;
#214 = PLANE ( 'NONE',  #68 ) ;
#215 = LINE ( 'NONE', #132, #44 ) ;
#216 = ORIENTED_EDGE ( 'NONE', *, *, #273, .F. ) ;
#217 = PLANE ( 'NONE',  #6 ) ;
#218 = CARTESIAN_POINT ( 'NONE',  ( 78.00000000000000000, -1.999999999999998668, -10.00000000000000000 ) ) ;
#219 = EDGE_CURVE ( 'NONE', #150, #58, #93, .T. ) ;
#220 = CARTESIAN_POINT ( 'NONE',  ( 78.00000000000000000, -0.7499999999999986677, -22.00000000000000000 ) ) ;
#221 =( NAMED_UNIT ( * ) PLANE_ANGLE_UNIT ( ) SI_UNIT ( $, .RADIAN. ) );
#222 = EDGE_LOOP ( 'NONE', ( #32, #62, #312, #203 ) ) ;
#223 = CARTESIAN_POINT ( 'NONE',  ( 78.00000000000000000, 0.0000000000000000000, 0.0000000000000000000 ) ) ;
#224 = AXIS2_PLACEMENT_3D ( 'NONE', #151, #19, #97 ) ;
#225 = ORIENTED_EDGE ( 'NONE', *, *, #219, .F. ) ;
#226 = EDGE_CURVE ( 'NONE', #183, #28, #160, .T. ) ;
#227 =( LENGTH_UNIT ( ) NAMED_UNIT ( * ) SI_UNIT ( .MILLI., .METRE. ) );
#228 = CARTESIAN_POINT ( 'NONE',  ( -6.000000000000000000, -1.999999999999998668, -10.00000000000000000 ) ) ;
#229 = ORIENTED_EDGE ( 'NONE', *, *, #316, .F. ) ;
#230 = AXIS2_PLACEMENT_3D ( 'NONE', #268, #171, #242 ) ;
#231 = APPLICATION_PROTOCOL_DEFINITION ( 'draft international standard', 'automotive_design', 1998, #283 ) ;
#232 = EDGE_CURVE ( 'NONE', #89, #74, #215, .T. ) ;
#233 = VECTOR ( 'NONE', #80, 1000.000000000000000 ) ;
#234 = VECTOR ( 'NONE', #92, 1000.000000000000000 ) ;
#235 = EDGE_CURVE ( 'NONE', #115, #259, #253, .T. ) ;
#236 = ORIENTED_EDGE ( 'NONE', *, *, #143, .T. ) ;
#237 = ADVANCED_FACE ( 'NONE', ( #166 ), #266, .F. ) ;
#238 = FACE_OUTER_BOUND ( 'NONE', #11, .T. ) ;
#239 = ORIENTED_EDGE ( 'NONE', *, *, #143, .F. ) ;
#240 = CARTESIAN_POINT ( 'NONE',  ( 78.00000000000000000, 0.7500000000000013323, -22.00000000000000000 ) ) ;
#241 = EDGE_CURVE ( 'NONE', #89, #115, #134, .T. ) ;
#242 = DIRECTION ( 'NONE',  ( 1.000000000000000000, 0.0000000000000000000, 0.0000000000000000000 ) ) ;
#243 = PLANE ( 'NONE',  #147 ) ;
#244 = DIRECTION ( 'NONE',  ( 0.0000000000000000000, -1.000000000000000000, 0.0000000000000000000 ) ) ;
#245 =( NAMED_UNIT ( * ) SI_UNIT ( $, .STERADIAN. ) SOLID_ANGLE_UNIT ( ) );
#246 = DIRECTION ( 'NONE',  ( -0.0000000000000000000, 1.000000000000000000, -0.0000000000000000000 ) ) ;
#247 = CARTESIAN_POINT ( 'NONE',  ( -6.000000000000000000, -0.7499999999999986677, -22.00000000000000000 ) ) ;
#248 = ORIENTED_EDGE ( 'NONE', *, *, #43, .T. ) ;
#249 = DIRECTION ( 'NONE',  ( -1.000000000000000000, -0.0000000000000000000, -0.0000000000000000000 ) ) ;
#250 = DIRECTION ( 'NONE',  ( -1.000000000000000000, 0.0000000000000000000, 0.0000000000000000000 ) ) ;
#251 = DIRECTION ( 'NONE',  ( 0.0000000000000000000, 0.0000000000000000000, -1.000000000000000000 ) ) ;
#252 = CARTESIAN_POINT ( 'NONE',  ( 78.00000000000000000, -0.7499999999999986677, -10.00000000000000000 ) ) ;
#253 = LINE ( 'NONE', #320, #284 ) ;
#254 = DIRECTION ( 'NONE',  ( -1.000000000000000000, -0.0000000000000000000, -0.0000000000000000000 ) ) ;
#255 = PRODUCT_CONTEXT ( 'NONE', #283, 'mechanical' ) ;
#256 = VECTOR ( 'NONE', #333, 1000.000000000000000 ) ;
#257 = ORIENTED_EDGE ( 'NONE', *, *, #316, .T. ) ;
#258 = ORIENTED_EDGE ( 'NONE', *, *, #84, .F. ) ;
#259 = VERTEX_POINT ( 'NONE', #120 ) ;
#260 = EDGE_CURVE ( 'NONE', #315, #89, #314, .T. ) ;
#261 = ADVANCED_FACE ( 'NONE', ( #238 ), #217, .F. ) ;
#262 = PRESENTATION_STYLE_ASSIGNMENT (( #308 ) ) ;
#263 = CARTESIAN_POINT ( 'NONE',  ( 78.00000000000000000, 0.7500000000000013323, -22.00000000000000000 ) ) ;
#264 = VECTOR ( 'NONE', #67, 1000.000000000000000 ) ;
#265 = ADVANCED_FACE ( 'NONE', ( #113 ), #73, .F. ) ;
#266 = PLANE ( 'NONE',  #75 ) ;
#267 = ORIENTED_EDGE ( 'NONE', *, *, #98, .F. ) ;
#268 = CARTESIAN_POINT ( 'NONE',  ( 78.00000000000000000, -0.7499999999999986677, -10.00000000000000000 ) ) ;
#269 = CARTESIAN_POINT ( 'NONE',  ( -6.000000000000000000, 2.000000000000001332, -10.00000000000000000 ) ) ;
#270 = CARTESIAN_POINT ( 'NONE',  ( -6.000000000000000000, 0.7500000000000013323, -10.00000000000000000 ) ) ;
#271 = DIRECTION ( 'NONE',  ( 0.0000000000000000000, 1.000000000000000000, 0.0000000000000000000 ) ) ;
#272 = CARTESIAN_POINT ( 'NONE',  ( 78.00000000000000000, 0.7500000000000013323, -22.00000000000000000 ) ) ;
#273 = EDGE_CURVE ( 'NONE', #331, #173, #184, .T. ) ;
#274 = FACE_OUTER_BOUND ( 'NONE', #292, .T. ) ;
#275 = DIRECTION ( 'NONE',  ( 0.0000000000000000000, 1.000000000000000000, 0.0000000000000000000 ) ) ;
#276 = DIRECTION ( 'NONE',  ( -1.000000000000000000, -0.0000000000000000000, -0.0000000000000000000 ) ) ;
#277 = EDGE_LOOP ( 'NONE', ( #313, #152, #229, #5 ) ) ;
#278 = DIRECTION ( 'NONE',  ( 0.0000000000000000000, 0.0000000000000000000, 1.000000000000000000 ) ) ;
#279 = AXIS2_PLACEMENT_3D ( 'NONE', #223, #250, #305 ) ;
#280 = ORIENTED_EDGE ( 'NONE', *, *, #112, .F. ) ;
#281 = DIRECTION ( 'NONE',  ( -1.000000000000000000, -0.0000000000000000000, -0.0000000000000000000 ) ) ;
#282 = EDGE_CURVE ( 'NONE', #29, #315, #71, .T. ) ;
#283 = APPLICATION_CONTEXT ( 'automotive_design' ) ;
#284 = VECTOR ( 'NONE', #88, 1000.000000000000000 ) ;
#285 = ORIENTED_EDGE ( 'NONE', *, *, #43, .F. ) ;
#286 = PRESENTATION_STYLE_ASSIGNMENT (( #114 ) ) ;
#287 = ORIENTED_EDGE ( 'NONE', *, *, #192, .T. ) ;
#288 = EDGE_CURVE ( 'NONE', #183, #150, #34, .T. ) ;
#289 = ORIENTED_EDGE ( 'NONE', *, *, #177, .T. ) ;
#290 = ADVANCED_FACE ( 'NONE', ( #117 ), #190, .F. ) ;
#291 = EDGE_LOOP ( 'NONE', ( #36, #168, #289, #66, #46, #133, #72, #119 ) ) ;
#292 = EDGE_LOOP ( 'NONE', ( #236, #140, #87, #258 ) ) ;
#293 = CARTESIAN_POINT ( 'NONE',  ( 78.00000000000000000, -0.7499999999999986677, -22.00000000000000000 ) ) ;
#294 = VECTOR ( 'NONE', #45, 1000.000000000000000 ) ;
#295 = CARTESIAN_POINT ( 'NONE',  ( -6.000000000000000000, 2.000000000000001332, -10.00000000000000000 ) ) ;
#296 =( NAMED_UNIT ( * ) PLANE_ANGLE_UNIT ( ) SI_UNIT ( $, .RADIAN. ) );
#297 = PRESENTATION_LAYER_ASSIGNMENT (  '', '', ( #56 ) ) ;
#298 = DIRECTION ( 'NONE',  ( -1.000000000000000000, 0.0000000000000000000, 0.0000000000000000000 ) ) ;
#299 = COLOUR_RGB ( '',0.7921568627450980005, 0.8196078431372548767, 0.9333333333333333481 ) ;
#300 = DIRECTION ( 'NONE',  ( 0.0000000000000000000, -1.000000000000000000, 0.0000000000000000000 ) ) ;
#301 = VERTEX_POINT ( 'NONE', #122 ) ;
#302 = ORIENTED_EDGE ( 'NONE', *, *, #112, .T. ) ;
#303 = CARTESIAN_POINT ( 'NONE',  ( 78.00000000000000000, -1.999999999999998668, -10.00000000000000000 ) ) ;
#304 = EDGE_CURVE ( 'NONE', #58, #301, #154, .T. ) ;
#305 = DIRECTION ( 'NONE',  ( 0.0000000000000000000, 0.0000000000000000000, 1.000000000000000000 ) ) ;
#306 = VECTOR ( 'NONE', #251, 1000.000000000000000 ) ;
#307 = CARTESIAN_POINT ( 'NONE',  ( 78.00000000000000000, -0.7499999999999986677, -10.00000000000000000 ) ) ;
#308 = SURFACE_STYLE_USAGE ( .BOTH. , #81 ) ;
#309 = VECTOR ( 'NONE', #275, 1000.000000000000000 ) ;
#310 = ORIENTED_EDGE ( 'NONE', *, *, #260, .F. ) ;
#311 = ORIENTED_EDGE ( 'NONE', *, *, #282, .F. ) ;
#312 = ORIENTED_EDGE ( 'NONE', *, *, #288, .F. ) ;
#313 = ORIENTED_EDGE ( 'NONE', *, *, #288, .T. ) ;
#314 = LINE ( 'NONE', #197, #109 ) ;
#315 = VERTEX_POINT ( 'NONE', #96 ) ;
#316 = EDGE_CURVE ( 'NONE', #28, #58, #172, .T. ) ;
#317 = AXIS2_PLACEMENT_3D ( 'NONE', #175, #24, #49 ) ;
#318 = FACE_OUTER_BOUND ( 'NONE', #82, .T. ) ;
#319 = FACE_OUTER_BOUND ( 'NONE', #277, .T. ) ;
#320 = CARTESIAN_POINT ( 'NONE',  ( -6.000000000000000000, 2.000000000000001332, 0.0000000000000000000 ) ) ;
#321 = AXIS2_PLACEMENT_3D ( 'NONE', #211, #298, #193 ) ;
#322 = LINE ( 'NONE', #22, #207 ) ;
#323 = ADVANCED_FACE ( 'NONE', ( #51 ), #40, .T. ) ;
#324 = FILL_AREA_STYLE ('',( #195 ) ) ;
#325 = CARTESIAN_POINT ( 'NONE',  ( 78.00000000000000000, -1.999999999999998668, 0.0000000000000000000 ) ) ;
#326 =( GEOMETRIC_REPRESENTATION_CONTEXT ( 3 ) GLOBAL_UNCERTAINTY_ASSIGNED_CONTEXT ( ( #48 ) ) GLOBAL_UNIT_ASSIGNED_CONTEXT ( ( #227, #156, #202 ) ) REPRESENTATION_CONTEXT ( 'NONE', 'WORKASPACE' ) );
#327 = DIRECTION ( 'NONE',  ( 0.0000000000000000000, 0.0000000000000000000, 1.000000000000000000 ) ) ;
#328 = CARTESIAN_POINT ( 'NONE',  ( 78.00000000000000000, -0.7499999999999986677, -22.00000000000000000 ) ) ;
#329 = EDGE_CURVE ( 'NONE', #47, #301, #106, .T. ) ;
#330 = FACE_OUTER_BOUND ( 'NONE', #291, .T. ) ;
#331 = VERTEX_POINT ( 'NONE', #270 ) ;
#332 = CARTESIAN_POINT ( 'NONE',  ( 78.00000000000000000, 2.000000000000001332, 0.0000000000000000000 ) ) ;
#333 = DIRECTION ( 'NONE',  ( -1.000000000000000000, -0.0000000000000000000, -0.0000000000000000000 ) ) ;
#334 = CARTESIAN_POINT ( 'NONE',  ( -6.000000000000000000, -0.7499999999999986677, -10.00000000000000000 ) ) ;
ENDSEC;
END-ISO-10303-21;
