ISO-10303-21;
HEADER;
FILE_DESCRIPTION (( 'STEP AP214' ),
    '1' );
FILE_NAME ('191824.STEP',
    '2020-02-13T11:23:34',
    ( '' ),
    ( '' ),
    'SwSTEP 2.0',
    'SolidWorks 2018',
    '' );
FILE_SCHEMA (( 'AUTOMOTIVE_DESIGN' ));
ENDSEC;

DATA;
#1 = ORIENTED_EDGE ( 'NONE', *, *, #308, .F. ) ;
#2 = EDGE_CURVE ( 'NONE', #58, #75, #248, .T. ) ;
#3 = VECTOR ( 'NONE', #296, 1000.000000000000000 ) ;
#4 = VERTEX_POINT ( 'NONE', #129 ) ;
#5 = CARTESIAN_POINT ( 'NONE',  ( 66.00000000000000000, -0.7499999999999986677, -22.00000000000000000 ) ) ;
#6 = CARTESIAN_POINT ( 'NONE',  ( 66.00000000000000000, 0.7500000000000013323, -10.00000000000000000 ) ) ;
#7 = CARTESIAN_POINT ( 'NONE',  ( -6.000000000000000000, -0.7499999999999986677, -10.00000000000000000 ) ) ;
#8 = LINE ( 'NONE', #242, #165 ) ;
#9 = CARTESIAN_POINT ( 'NONE',  ( 66.00000000000000000, 2.000000000000001332, -10.00000000000000000 ) ) ;
#10 = EDGE_CURVE ( 'NONE', #299, #137, #134, .T. ) ;
#11 = CARTESIAN_POINT ( 'NONE',  ( 66.00000000000000000, 2.000000000000001332, 0.0000000000000000000 ) ) ;
#12 =( NAMED_UNIT ( * ) SI_UNIT ( $, .STERADIAN. ) SOLID_ANGLE_UNIT ( ) );
#13 = CLOSED_SHELL ( 'NONE', ( #205, #23, #80, #226, #334, #277, #155, #201, #123, #304 ) ) ;
#14 = PLANE ( 'NONE',  #178 ) ;
#15 = ORIENTED_EDGE ( 'NONE', *, *, #64, .F. ) ;
#16 = ADVANCED_BREP_SHAPE_REPRESENTATION ( '191824', ( #182, #130 ), #325 ) ;
#17 = ORIENTED_EDGE ( 'NONE', *, *, #303, .T. ) ;
#18 = CARTESIAN_POINT ( 'NONE',  ( 66.00000000000000000, -0.7499999999999986677, -22.00000000000000000 ) ) ;
#19 = LINE ( 'NONE', #101, #213 ) ;
#20 =( NAMED_UNIT ( * ) SI_UNIT ( $, .STERADIAN. ) SOLID_ANGLE_UNIT ( ) );
#21 = VECTOR ( 'NONE', #192, 1000.000000000000000 ) ;
#22 = ORIENTED_EDGE ( 'NONE', *, *, #151, .T. ) ;
#23 = ADVANCED_FACE ( 'NONE', ( #233 ), #98, .F. ) ;
#24 = DIRECTION ( 'NONE',  ( -1.000000000000000000, -0.0000000000000000000, -0.0000000000000000000 ) ) ;
#25 = PLANE ( 'NONE',  #297 ) ;
#26 = ORIENTED_EDGE ( 'NONE', *, *, #102, .F. ) ;
#27 = AXIS2_PLACEMENT_3D ( 'NONE', #278, #286, #133 ) ;
#28 = PRODUCT ( '191824', '191824', '', ( #197 ) ) ;
#29 = VECTOR ( 'NONE', #241, 1000.000000000000000 ) ;
#30 = ORIENTED_EDGE ( 'NONE', *, *, #256, .F. ) ;
#31 = DIRECTION ( 'NONE',  ( 0.0000000000000000000, 0.0000000000000000000, 1.000000000000000000 ) ) ;
#32 = PRODUCT_DEFINITION_FORMATION_WITH_SPECIFIED_SOURCE ( 'ANY', '', #28, .NOT_KNOWN. ) ;
#33 = SURFACE_SIDE_STYLE ('',( #179 ) ) ;
#34 = COLOUR_RGB ( '',0.7921568627450980005, 0.8196078431372548767, 0.9333333333333333481 ) ;
#35 = EDGE_LOOP ( 'NONE', ( #17, #257, #200, #79, #113, #236, #22, #128 ) ) ;
#36 = CARTESIAN_POINT ( 'NONE',  ( -6.000000000000000000, 0.7500000000000013323, -22.00000000000000000 ) ) ;
#37 = DIRECTION ( 'NONE',  ( 0.0000000000000000000, 0.0000000000000000000, 1.000000000000000000 ) ) ;
#38 = CARTESIAN_POINT ( 'NONE',  ( 66.00000000000000000, 0.0000000000000000000, 0.0000000000000000000 ) ) ;
#39 = LINE ( 'NONE', #36, #183 ) ;
#40 = VECTOR ( 'NONE', #140, 1000.000000000000000 ) ;
#41 = EDGE_CURVE ( 'NONE', #153, #243, #191, .T. ) ;
#42 = CARTESIAN_POINT ( 'NONE',  ( -6.000000000000000000, 0.7500000000000013323, -10.00000000000000000 ) ) ;
#43 = UNCERTAINTY_MEASURE_WITH_UNIT (LENGTH_MEASURE( 1.000000000000000082E-05 ), #300, 'distance_accuracy_value', 'NONE');
#44 = LINE ( 'NONE', #228, #156 ) ;
#45 = DIRECTION ( 'NONE',  ( 0.0000000000000000000, 0.0000000000000000000, 1.000000000000000000 ) ) ;
#46 = PRESENTATION_LAYER_ASSIGNMENT (  '', '', ( #330 ) ) ;
#47 = EDGE_CURVE ( 'NONE', #208, #153, #109, .T. ) ;
#48 = LINE ( 'NONE', #142, #253 ) ;
#49 = VECTOR ( 'NONE', #31, 1000.000000000000000 ) ;
#50 = CARTESIAN_POINT ( 'NONE',  ( 66.00000000000000000, -1.999999999999998668, 0.0000000000000000000 ) ) ;
#51 = PRODUCT_RELATED_PRODUCT_CATEGORY ( 'part', '', ( #28 ) ) ;
#52 = VECTOR ( 'NONE', #24, 1000.000000000000000 ) ;
#53 = FACE_OUTER_BOUND ( 'NONE', #206, .T. ) ;
#54 = AXIS2_PLACEMENT_3D ( 'NONE', #9, #104, #238 ) ;
#55 = EDGE_CURVE ( 'NONE', #58, #94, #19, .T. ) ;
#56 = ORIENTED_EDGE ( 'NONE', *, *, #64, .T. ) ;
#57 = DIRECTION ( 'NONE',  ( 0.0000000000000000000, 0.0000000000000000000, 1.000000000000000000 ) ) ;
#58 = VERTEX_POINT ( 'NONE', #176 ) ;
#59 = DIRECTION ( 'NONE',  ( 1.000000000000000000, 0.0000000000000000000, 0.0000000000000000000 ) ) ;
#60 =( GEOMETRIC_REPRESENTATION_CONTEXT ( 3 ) GLOBAL_UNCERTAINTY_ASSIGNED_CONTEXT ( ( #149 ) ) GLOBAL_UNIT_ASSIGNED_CONTEXT ( ( #89, #258, #212 ) ) REPRESENTATION_CONTEXT ( 'NONE', 'WORKASPACE' ) );
#61 = PLANE ( 'NONE',  #82 ) ;
#62 = LINE ( 'NONE', #7, #144 ) ;
#63 = CARTESIAN_POINT ( 'NONE',  ( 66.00000000000000000, 2.000000000000001332, -10.00000000000000000 ) ) ;
#64 = EDGE_CURVE ( 'NONE', #81, #318, #221, .T. ) ;
#65 = CARTESIAN_POINT ( 'NONE',  ( 66.00000000000000000, -1.999999999999998668, -10.00000000000000000 ) ) ;
#66 = CARTESIAN_POINT ( 'NONE',  ( 66.00000000000000000, 2.000000000000001332, 0.0000000000000000000 ) ) ;
#67 = LINE ( 'NONE', #188, #328 ) ;
#68 = VECTOR ( 'NONE', #251, 1000.000000000000000 ) ;
#69 = CARTESIAN_POINT ( 'NONE',  ( -6.000000000000000000, 0.0000000000000000000, 0.0000000000000000000 ) ) ;
#70 = PRESENTATION_LAYER_ASSIGNMENT (  '', '', ( #73 ) ) ;
#71 = DIRECTION ( 'NONE',  ( 0.0000000000000000000, 0.0000000000000000000, 1.000000000000000000 ) ) ;
#72 = DIRECTION ( 'NONE',  ( 1.000000000000000000, 0.0000000000000000000, -0.0000000000000000000 ) ) ;
#73 = STYLED_ITEM ( 'NONE', ( #173 ), #16 ) ;
#74 = EDGE_LOOP ( 'NONE', ( #269, #162, #15, #309 ) ) ;
#75 = VERTEX_POINT ( 'NONE', #159 ) ;
#76 = EDGE_CURVE ( 'NONE', #318, #153, #44, .T. ) ;
#77 = VERTEX_POINT ( 'NONE', #50 ) ;
#78 = SURFACE_STYLE_USAGE ( .BOTH. , #122 ) ;
#79 = ORIENTED_EDGE ( 'NONE', *, *, #252, .T. ) ;
#80 = ADVANCED_FACE ( 'NONE', ( #126 ), #25, .F. ) ;
#81 = VERTEX_POINT ( 'NONE', #166 ) ;
#82 = AXIS2_PLACEMENT_3D ( 'NONE', #63, #105, #317 ) ;
#83 = LINE ( 'NONE', #85, #157 ) ;
#84 = ORIENTED_EDGE ( 'NONE', *, *, #193, .F. ) ;
#85 = CARTESIAN_POINT ( 'NONE',  ( -6.000000000000000000, -0.7499999999999986677, -22.00000000000000000 ) ) ;
#86 = ORIENTED_EDGE ( 'NONE', *, *, #237, .T. ) ;
#87 = CARTESIAN_POINT ( 'NONE',  ( -6.000000000000000000, -0.7499999999999986677, -22.00000000000000000 ) ) ;
#88 = ORIENTED_EDGE ( 'NONE', *, *, #102, .T. ) ;
#89 =( LENGTH_UNIT ( ) NAMED_UNIT ( * ) SI_UNIT ( .MILLI., .METRE. ) );
#90 = CARTESIAN_POINT ( 'NONE',  ( 66.00000000000000000, 2.000000000000001332, -10.00000000000000000 ) ) ;
#91 = FILL_AREA_STYLE ('',( #293 ) ) ;
#92 = VERTEX_POINT ( 'NONE', #316 ) ;
#93 = DIRECTION ( 'NONE',  ( 0.0000000000000000000, 0.0000000000000000000, -1.000000000000000000 ) ) ;
#94 = VERTEX_POINT ( 'NONE', #87 ) ;
#95 = LINE ( 'NONE', #150, #224 ) ;
#96 = ORIENTED_EDGE ( 'NONE', *, *, #211, .T. ) ;
#97 = ORIENTED_EDGE ( 'NONE', *, *, #124, .T. ) ;
#98 = PLANE ( 'NONE',  #27 ) ;
#99 = LINE ( 'NONE', #136, #40 ) ;
#100 = EDGE_CURVE ( 'NONE', #243, #4, #174, .T. ) ;
#101 = CARTESIAN_POINT ( 'NONE',  ( 66.00000000000000000, -0.7499999999999986677, -22.00000000000000000 ) ) ;
#102 = EDGE_CURVE ( 'NONE', #92, #94, #99, .T. ) ;
#103 = ORIENTED_EDGE ( 'NONE', *, *, #47, .F. ) ;
#104 = DIRECTION ( 'NONE',  ( 0.0000000000000000000, -1.000000000000000000, 0.0000000000000000000 ) ) ;
#105 = DIRECTION ( 'NONE',  ( -0.0000000000000000000, 0.0000000000000000000, 1.000000000000000000 ) ) ;
#106 = PRODUCT_DEFINITION_CONTEXT ( 'detailed design', #223, 'design' ) ;
#107 = CARTESIAN_POINT ( 'NONE',  ( 66.00000000000000000, 0.7500000000000013323, -22.00000000000000000 ) ) ;
#108 = PRESENTATION_STYLE_ASSIGNMENT (( #312 ) ) ;
#109 = LINE ( 'NONE', #232, #254 ) ;
#110 = DIRECTION ( 'NONE',  ( 0.0000000000000000000, 1.000000000000000000, 0.0000000000000000000 ) ) ;
#111 = APPLICATION_PROTOCOL_DEFINITION ( 'draft international standard', 'automotive_design', 1998, #263 ) ;
#112 = ORIENTED_EDGE ( 'NONE', *, *, #245, .T. ) ;
#113 = ORIENTED_EDGE ( 'NONE', *, *, #2, .T. ) ;
#114 = CARTESIAN_POINT ( 'NONE',  ( 66.00000000000000000, 0.7500000000000013323, -22.00000000000000000 ) ) ;
#115 = ORIENTED_EDGE ( 'NONE', *, *, #55, .F. ) ;
#116 = DIRECTION ( 'NONE',  ( -1.000000000000000000, 0.0000000000000000000, 0.0000000000000000000 ) ) ;
#117 = AXIS2_PLACEMENT_3D ( 'NONE', #69, #116, #171 ) ;
#118 = DIRECTION ( 'NONE',  ( -0.0000000000000000000, 1.000000000000000000, 0.0000000000000000000 ) ) ;
#119 =( NAMED_UNIT ( * ) PLANE_ANGLE_UNIT ( ) SI_UNIT ( $, .RADIAN. ) );
#120 = DIRECTION ( 'NONE',  ( 1.000000000000000000, 0.0000000000000000000, 0.0000000000000000000 ) ) ;
#121 = FACE_OUTER_BOUND ( 'NONE', #141, .T. ) ;
#122 = SURFACE_SIDE_STYLE ('',( #322 ) ) ;
#123 = ADVANCED_FACE ( 'NONE', ( #240 ), #185, .F. ) ;
#124 = EDGE_CURVE ( 'NONE', #94, #227, #83, .T. ) ;
#125 = LINE ( 'NONE', #266, #21 ) ;
#126 = FACE_OUTER_BOUND ( 'NONE', #187, .T. ) ;
#127 = ORIENTED_EDGE ( 'NONE', *, *, #151, .F. ) ;
#128 = ORIENTED_EDGE ( 'NONE', *, *, #279, .T. ) ;
#129 = CARTESIAN_POINT ( 'NONE',  ( -6.000000000000000000, -1.999999999999998668, 0.0000000000000000000 ) ) ;
#130 = AXIS2_PLACEMENT_3D ( 'NONE', #298, #175, #120 ) ;
#131 = ORIENTED_EDGE ( 'NONE', *, *, #252, .F. ) ;
#132 = VECTOR ( 'NONE', #268, 1000.000000000000000 ) ;
#133 = DIRECTION ( 'NONE',  ( 0.0000000000000000000, -0.0000000000000000000, 1.000000000000000000 ) ) ;
#134 = LINE ( 'NONE', #250, #329 ) ;
#135 = DIRECTION ( 'NONE',  ( -0.0000000000000000000, 1.000000000000000000, -0.0000000000000000000 ) ) ;
#136 = CARTESIAN_POINT ( 'NONE',  ( -6.000000000000000000, -0.7499999999999986677, -10.00000000000000000 ) ) ;
#137 = VERTEX_POINT ( 'NONE', #215 ) ;
#138 = FACE_OUTER_BOUND ( 'NONE', #276, .T. ) ;
#139 = ORIENTED_EDGE ( 'NONE', *, *, #211, .F. ) ;
#140 = DIRECTION ( 'NONE',  ( 0.0000000000000000000, 0.0000000000000000000, -1.000000000000000000 ) ) ;
#141 = EDGE_LOOP ( 'NONE', ( #86, #180, #320, #195 ) ) ;
#142 = CARTESIAN_POINT ( 'NONE',  ( 66.00000000000000000, -1.999999999999998668, 0.0000000000000000000 ) ) ;
#143 = PLANE ( 'NONE',  #117 ) ;
#144 = VECTOR ( 'NONE', #292, 1000.000000000000000 ) ;
#145 = ORIENTED_EDGE ( 'NONE', *, *, #202, .T. ) ;
#146 = PLANE ( 'NONE',  #283 ) ;
#147 = PLANE ( 'NONE',  #209 ) ;
#148 = CARTESIAN_POINT ( 'NONE',  ( 66.00000000000000000, -1.999999999999998668, -10.00000000000000000 ) ) ;
#149 = UNCERTAINTY_MEASURE_WITH_UNIT (LENGTH_MEASURE( 1.000000000000000082E-05 ), #89, 'distance_accuracy_value', 'NONE');
#150 = CARTESIAN_POINT ( 'NONE',  ( 66.00000000000000000, 0.7500000000000013323, -22.00000000000000000 ) ) ;
#151 = EDGE_CURVE ( 'NONE', #81, #208, #67, .T. ) ;
#152 = VECTOR ( 'NONE', #71, 1000.000000000000000 ) ;
#153 = VERTEX_POINT ( 'NONE', #163 ) ;
#154 = DIRECTION ( 'NONE',  ( -1.000000000000000000, -0.0000000000000000000, -0.0000000000000000000 ) ) ;
#155 = ADVANCED_FACE ( 'NONE', ( #138 ), #61, .F. ) ;
#156 = VECTOR ( 'NONE', #135, 1000.000000000000000 ) ;
#157 = VECTOR ( 'NONE', #110, 1000.000000000000000 ) ;
#158 = ORIENTED_EDGE ( 'NONE', *, *, #41, .T. ) ;
#159 = CARTESIAN_POINT ( 'NONE',  ( 66.00000000000000000, 0.7500000000000013323, -22.00000000000000000 ) ) ;
#160 = ORIENTED_EDGE ( 'NONE', *, *, #245, .F. ) ;
#161 = DIRECTION ( 'NONE',  ( 0.0000000000000000000, -1.000000000000000000, 0.0000000000000000000 ) ) ;
#162 = ORIENTED_EDGE ( 'NONE', *, *, #193, .T. ) ;
#163 = CARTESIAN_POINT ( 'NONE',  ( -6.000000000000000000, 2.000000000000001332, -10.00000000000000000 ) ) ;
#164 = PLANE ( 'NONE',  #234 ) ;
#165 = VECTOR ( 'NONE', #93, 1000.000000000000000 ) ;
#166 = CARTESIAN_POINT ( 'NONE',  ( 66.00000000000000000, 0.7500000000000013323, -10.00000000000000000 ) ) ;
#167 = CARTESIAN_POINT ( 'NONE',  ( 66.00000000000000000, -0.7499999999999986677, -10.00000000000000000 ) ) ;
#168 = CARTESIAN_POINT ( 'NONE',  ( 66.00000000000000000, -1.999999999999998668, -10.00000000000000000 ) ) ;
#169 = MECHANICAL_DESIGN_GEOMETRIC_PRESENTATION_REPRESENTATION (  '', ( #330 ), #60 ) ;
#170 = ORIENTED_EDGE ( 'NONE', *, *, #76, .F. ) ;
#171 = DIRECTION ( 'NONE',  ( 0.0000000000000000000, 0.0000000000000000000, 1.000000000000000000 ) ) ;
#172 =( LENGTH_UNIT ( ) NAMED_UNIT ( * ) SI_UNIT ( .MILLI., .METRE. ) );
#173 = PRESENTATION_STYLE_ASSIGNMENT (( #78 ) ) ;
#174 = LINE ( 'NONE', #314, #323 ) ;
#175 = DIRECTION ( 'NONE',  ( 0.0000000000000000000, 0.0000000000000000000, 1.000000000000000000 ) ) ;
#176 = CARTESIAN_POINT ( 'NONE',  ( 66.00000000000000000, -0.7499999999999986677, -22.00000000000000000 ) ) ;
#177 = EDGE_LOOP ( 'NONE', ( #265, #97, #30, #285 ) ) ;
#178 = AXIS2_PLACEMENT_3D ( 'NONE', #167, #118, #270 ) ;
#179 = SURFACE_STYLE_FILL_AREA ( #91 ) ;
#180 = ORIENTED_EDGE ( 'NONE', *, *, #100, .T. ) ;
#181 = EDGE_CURVE ( 'NONE', #75, #81, #246, .T. ) ;
#182 = MANIFOLD_SOLID_BREP ( 'Aufsatz-Linear austragen1', #13 ) ;
#183 = VECTOR ( 'NONE', #57, 1000.000000000000000 ) ;
#184 = ORIENTED_EDGE ( 'NONE', *, *, #76, .T. ) ;
#185 = PLANE ( 'NONE',  #306 ) ;
#186 = EDGE_CURVE ( 'NONE', #77, #4, #48, .T. ) ;
#187 = EDGE_LOOP ( 'NONE', ( #305, #145, #139, #218 ) ) ;
#188 = CARTESIAN_POINT ( 'NONE',  ( 66.00000000000000000, 2.000000000000001332, -10.00000000000000000 ) ) ;
#189 = DIRECTION ( 'NONE',  ( 0.0000000000000000000, 0.0000000000000000000, -1.000000000000000000 ) ) ;
#190 = PRODUCT_DEFINITION ( 'UNKNOWN', '', #32, #106 ) ;
#191 = LINE ( 'NONE', #310, #49 ) ;
#192 = DIRECTION ( 'NONE',  ( 0.0000000000000000000, -1.000000000000000000, 0.0000000000000000000 ) ) ;
#193 = EDGE_CURVE ( 'NONE', #227, #318, #39, .T. ) ;
#194 = DIRECTION ( 'NONE',  ( -1.000000000000000000, -0.0000000000000000000, -0.0000000000000000000 ) ) ;
#195 = ORIENTED_EDGE ( 'NONE', *, *, #303, .F. ) ;
#196 = DIRECTION ( 'NONE',  ( -1.000000000000000000, -0.0000000000000000000, -0.0000000000000000000 ) ) ;
#197 = PRODUCT_CONTEXT ( 'NONE', #263, 'mechanical' ) ;
#198 = ORIENTED_EDGE ( 'NONE', *, *, #41, .F. ) ;
#199 = LINE ( 'NONE', #168, #132 ) ;
#200 = ORIENTED_EDGE ( 'NONE', *, *, #10, .T. ) ;
#201 = ADVANCED_FACE ( 'NONE', ( #53 ), #291, .F. ) ;
#202 = EDGE_CURVE ( 'NONE', #231, #92, #62, .T. ) ;
#203 = ORIENTED_EDGE ( 'NONE', *, *, #202, .F. ) ;
#204 = COLOUR_RGB ( '',0.7921568627450980005, 0.8196078431372548767, 0.9333333333333333481 ) ;
#205 = ADVANCED_FACE ( 'NONE', ( #121 ), #164, .F. ) ;
#206 = EDGE_LOOP ( 'NONE', ( #301, #158, #307, #225 ) ) ;
#207 = FACE_OUTER_BOUND ( 'NONE', #332, .T. ) ;
#208 = VERTEX_POINT ( 'NONE', #90 ) ;
#209 = AXIS2_PLACEMENT_3D ( 'NONE', #18, #45, #72 ) ;
#210 = EDGE_LOOP ( 'NONE', ( #96, #88, #115, #131 ) ) ;
#211 = EDGE_CURVE ( 'NONE', #137, #92, #239, .T. ) ;
#212 =( NAMED_UNIT ( * ) SI_UNIT ( $, .STERADIAN. ) SOLID_ANGLE_UNIT ( ) );
#213 = VECTOR ( 'NONE', #154, 1000.000000000000000 ) ;
#214 = MECHANICAL_DESIGN_GEOMETRIC_PRESENTATION_REPRESENTATION (  '', ( #73 ), #249 ) ;
#215 = CARTESIAN_POINT ( 'NONE',  ( 66.00000000000000000, -0.7499999999999986677, -10.00000000000000000 ) ) ;
#216 = CARTESIAN_POINT ( 'NONE',  ( -6.000000000000000000, 2.000000000000001332, 0.0000000000000000000 ) ) ;
#217 = LINE ( 'NONE', #324, #152 ) ;
#218 = ORIENTED_EDGE ( 'NONE', *, *, #10, .F. ) ;
#219 = DIRECTION ( 'NONE',  ( 0.0000000000000000000, -1.000000000000000000, 0.0000000000000000000 ) ) ;
#220 = DIRECTION ( 'NONE',  ( -1.000000000000000000, -0.0000000000000000000, -0.0000000000000000000 ) ) ;
#221 = LINE ( 'NONE', #6, #52 ) ;
#222 = CARTESIAN_POINT ( 'NONE',  ( -6.000000000000000000, -1.999999999999998668, -10.00000000000000000 ) ) ;
#223 = APPLICATION_CONTEXT ( 'automotive_design' ) ;
#224 = VECTOR ( 'NONE', #196, 1000.000000000000000 ) ;
#225 = ORIENTED_EDGE ( 'NONE', *, *, #279, .F. ) ;
#226 = ADVANCED_FACE ( 'NONE', ( #302 ), #14, .F. ) ;
#227 = VERTEX_POINT ( 'NONE', #321 ) ;
#228 = CARTESIAN_POINT ( 'NONE',  ( -6.000000000000000000, 2.000000000000001332, -10.00000000000000000 ) ) ;
#229 = ORIENTED_EDGE ( 'NONE', *, *, #124, .F. ) ;
#230 = LINE ( 'NONE', #65, #259 ) ;
#231 = VERTEX_POINT ( 'NONE', #327 ) ;
#232 = CARTESIAN_POINT ( 'NONE',  ( 66.00000000000000000, 2.000000000000001332, -10.00000000000000000 ) ) ;
#233 = FACE_OUTER_BOUND ( 'NONE', #282, .T. ) ;
#234 = AXIS2_PLACEMENT_3D ( 'NONE', #11, #189, #262 ) ;
#235 = DIRECTION ( 'NONE',  ( -1.000000000000000000, 0.0000000000000000000, 0.0000000000000000000 ) ) ;
#236 = ORIENTED_EDGE ( 'NONE', *, *, #181, .T. ) ;
#237 = EDGE_CURVE ( 'NONE', #294, #243, #315, .T. ) ;
#238 = DIRECTION ( 'NONE',  ( 0.0000000000000000000, -0.0000000000000000000, -1.000000000000000000 ) ) ;
#239 = LINE ( 'NONE', #260, #333 ) ;
#240 = FACE_OUTER_BOUND ( 'NONE', #35, .T. ) ;
#241 = DIRECTION ( 'NONE',  ( 0.0000000000000000000, 0.0000000000000000000, 1.000000000000000000 ) ) ;
#242 = CARTESIAN_POINT ( 'NONE',  ( 66.00000000000000000, -0.7499999999999986677, -10.00000000000000000 ) ) ;
#243 = VERTEX_POINT ( 'NONE', #216 ) ;
#244 = DIRECTION ( 'NONE',  ( 0.0000000000000000000, -0.0000000000000000000, -1.000000000000000000 ) ) ;
#245 = EDGE_CURVE ( 'NONE', #4, #231, #274, .T. ) ;
#246 = LINE ( 'NONE', #107, #29 ) ;
#247 = SHAPE_DEFINITION_REPRESENTATION ( #261, #16 ) ;
#248 = LINE ( 'NONE', #5, #68 ) ;
#249 =( GEOMETRIC_REPRESENTATION_CONTEXT ( 3 ) GLOBAL_UNCERTAINTY_ASSIGNED_CONTEXT ( ( #288 ) ) GLOBAL_UNIT_ASSIGNED_CONTEXT ( ( #172, #272, #20 ) ) REPRESENTATION_CONTEXT ( 'NONE', 'WORKASPACE' ) );
#250 = CARTESIAN_POINT ( 'NONE',  ( 66.00000000000000000, -0.7499999999999986677, -10.00000000000000000 ) ) ;
#251 = DIRECTION ( 'NONE',  ( 0.0000000000000000000, 1.000000000000000000, 0.0000000000000000000 ) ) ;
#252 = EDGE_CURVE ( 'NONE', #137, #58, #8, .T. ) ;
#253 = VECTOR ( 'NONE', #287, 1000.000000000000000 ) ;
#254 = VECTOR ( 'NONE', #331, 1000.000000000000000 ) ;
#255 = DIRECTION ( 'NONE',  ( -0.0000000000000000000, 1.000000000000000000, -0.0000000000000000000 ) ) ;
#256 = EDGE_CURVE ( 'NONE', #75, #227, #95, .T. ) ;
#257 = ORIENTED_EDGE ( 'NONE', *, *, #271, .T. ) ;
#258 =( NAMED_UNIT ( * ) PLANE_ANGLE_UNIT ( ) SI_UNIT ( $, .RADIAN. ) );
#259 = VECTOR ( 'NONE', #319, 1000.000000000000000 ) ;
#260 = CARTESIAN_POINT ( 'NONE',  ( 66.00000000000000000, -0.7499999999999986677, -10.00000000000000000 ) ) ;
#261 = PRODUCT_DEFINITION_SHAPE ( 'NONE', 'NONE',  #190 ) ;
#262 = DIRECTION ( 'NONE',  ( -1.000000000000000000, 0.0000000000000000000, -0.0000000000000000000 ) ) ;
#263 = APPLICATION_CONTEXT ( 'automotive_design' ) ;
#264 = FACE_OUTER_BOUND ( 'NONE', #177, .T. ) ;
#265 = ORIENTED_EDGE ( 'NONE', *, *, #55, .T. ) ;
#266 = CARTESIAN_POINT ( 'NONE',  ( 66.00000000000000000, 2.000000000000001332, 0.0000000000000000000 ) ) ;
#267 = CARTESIAN_POINT ( 'NONE',  ( 66.00000000000000000, 2.000000000000001332, 0.0000000000000000000 ) ) ;
#268 = DIRECTION ( 'NONE',  ( -1.000000000000000000, -0.0000000000000000000, -0.0000000000000000000 ) ) ;
#269 = ORIENTED_EDGE ( 'NONE', *, *, #256, .T. ) ;
#270 = DIRECTION ( 'NONE',  ( 0.0000000000000000000, -0.0000000000000000000, 1.000000000000000000 ) ) ;
#271 = EDGE_CURVE ( 'NONE', #77, #299, #230, .T. ) ;
#272 =( NAMED_UNIT ( * ) PLANE_ANGLE_UNIT ( ) SI_UNIT ( $, .RADIAN. ) );
#273 = FILL_AREA_STYLE ('',( #295 ) ) ;
#274 = LINE ( 'NONE', #222, #3 ) ;
#275 = APPLICATION_PROTOCOL_DEFINITION ( 'draft international standard', 'automotive_design', 1998, #223 ) ;
#276 = EDGE_LOOP ( 'NONE', ( #56, #184, #103, #127 ) ) ;
#277 = ADVANCED_FACE ( 'NONE', ( #311 ), #146, .F. ) ;
#278 = CARTESIAN_POINT ( 'NONE',  ( 66.00000000000000000, -1.999999999999998668, -10.00000000000000000 ) ) ;
#279 = EDGE_CURVE ( 'NONE', #208, #294, #217, .T. ) ;
#280 = ORIENTED_EDGE ( 'NONE', *, *, #186, .T. ) ;
#281 = DIRECTION ( 'NONE',  ( -0.0000000000000000000, 1.000000000000000000, -0.0000000000000000000 ) ) ;
#282 = EDGE_LOOP ( 'NONE', ( #280, #112, #1, #326 ) ) ;
#283 = AXIS2_PLACEMENT_3D ( 'NONE', #114, #219, #244 ) ;
#284 = VECTOR ( 'NONE', #220, 1000.000000000000000 ) ;
#285 = ORIENTED_EDGE ( 'NONE', *, *, #2, .F. ) ;
#286 = DIRECTION ( 'NONE',  ( 0.0000000000000000000, 1.000000000000000000, 0.0000000000000000000 ) ) ;
#287 = DIRECTION ( 'NONE',  ( -1.000000000000000000, -0.0000000000000000000, -0.0000000000000000000 ) ) ;
#288 = UNCERTAINTY_MEASURE_WITH_UNIT (LENGTH_MEASURE( 1.000000000000000082E-05 ), #172, 'distance_accuracy_value', 'NONE');
#289 = ORIENTED_EDGE ( 'NONE', *, *, #100, .F. ) ;
#290 = DIRECTION ( 'NONE',  ( -0.0000000000000000000, 0.0000000000000000000, 1.000000000000000000 ) ) ;
#291 = PLANE ( 'NONE',  #54 ) ;
#292 = DIRECTION ( 'NONE',  ( -0.0000000000000000000, 1.000000000000000000, -0.0000000000000000000 ) ) ;
#293 = FILL_AREA_STYLE_COLOUR ( '', #204 ) ;
#294 = VERTEX_POINT ( 'NONE', #66 ) ;
#295 = FILL_AREA_STYLE_COLOUR ( '', #34 ) ;
#296 = DIRECTION ( 'NONE',  ( -0.0000000000000000000, -0.0000000000000000000, -1.000000000000000000 ) ) ;
#297 = AXIS2_PLACEMENT_3D ( 'NONE', #313, #290, #59 ) ;
#298 = CARTESIAN_POINT ( 'NONE',  ( 0.0000000000000000000, 0.0000000000000000000, 0.0000000000000000000 ) ) ;
#299 = VERTEX_POINT ( 'NONE', #148 ) ;
#300 =( LENGTH_UNIT ( ) NAMED_UNIT ( * ) SI_UNIT ( .MILLI., .METRE. ) );
#301 = ORIENTED_EDGE ( 'NONE', *, *, #47, .T. ) ;
#302 = FACE_OUTER_BOUND ( 'NONE', #210, .T. ) ;
#303 = EDGE_CURVE ( 'NONE', #294, #77, #125, .T. ) ;
#304 = ADVANCED_FACE ( 'NONE', ( #207 ), #143, .T. ) ;
#305 = ORIENTED_EDGE ( 'NONE', *, *, #308, .T. ) ;
#306 = AXIS2_PLACEMENT_3D ( 'NONE', #38, #235, #37 ) ;
#307 = ORIENTED_EDGE ( 'NONE', *, *, #237, .F. ) ;
#308 = EDGE_CURVE ( 'NONE', #299, #231, #199, .T. ) ;
#309 = ORIENTED_EDGE ( 'NONE', *, *, #181, .F. ) ;
#310 = CARTESIAN_POINT ( 'NONE',  ( -6.000000000000000000, 2.000000000000001332, -10.00000000000000000 ) ) ;
#311 = FACE_OUTER_BOUND ( 'NONE', #74, .T. ) ;
#312 = SURFACE_STYLE_USAGE ( .BOTH. , #33 ) ;
#313 = CARTESIAN_POINT ( 'NONE',  ( 66.00000000000000000, -0.7499999999999986677, -10.00000000000000000 ) ) ;
#314 = CARTESIAN_POINT ( 'NONE',  ( -6.000000000000000000, 2.000000000000001332, 0.0000000000000000000 ) ) ;
#315 = LINE ( 'NONE', #267, #284 ) ;
#316 = CARTESIAN_POINT ( 'NONE',  ( -6.000000000000000000, -0.7499999999999986677, -10.00000000000000000 ) ) ;
#317 = DIRECTION ( 'NONE',  ( 1.000000000000000000, 0.0000000000000000000, 0.0000000000000000000 ) ) ;
#318 = VERTEX_POINT ( 'NONE', #42 ) ;
#319 = DIRECTION ( 'NONE',  ( -0.0000000000000000000, -0.0000000000000000000, -1.000000000000000000 ) ) ;
#320 = ORIENTED_EDGE ( 'NONE', *, *, #186, .F. ) ;
#321 = CARTESIAN_POINT ( 'NONE',  ( -6.000000000000000000, 0.7500000000000013323, -22.00000000000000000 ) ) ;
#322 = SURFACE_STYLE_FILL_AREA ( #273 ) ;
#323 = VECTOR ( 'NONE', #161, 1000.000000000000000 ) ;
#324 = CARTESIAN_POINT ( 'NONE',  ( 66.00000000000000000, 2.000000000000001332, -10.00000000000000000 ) ) ;
#325 =( GEOMETRIC_REPRESENTATION_CONTEXT ( 3 ) GLOBAL_UNCERTAINTY_ASSIGNED_CONTEXT ( ( #43 ) ) GLOBAL_UNIT_ASSIGNED_CONTEXT ( ( #300, #119, #12 ) ) REPRESENTATION_CONTEXT ( 'NONE', 'WORKASPACE' ) );
#326 = ORIENTED_EDGE ( 'NONE', *, *, #271, .F. ) ;
#327 = CARTESIAN_POINT ( 'NONE',  ( -6.000000000000000000, -1.999999999999998668, -10.00000000000000000 ) ) ;
#328 = VECTOR ( 'NONE', #255, 1000.000000000000000 ) ;
#329 = VECTOR ( 'NONE', #281, 1000.000000000000000 ) ;
#330 = STYLED_ITEM ( 'NONE', ( #108 ), #182 ) ;
#331 = DIRECTION ( 'NONE',  ( -1.000000000000000000, -0.0000000000000000000, -0.0000000000000000000 ) ) ;
#332 = EDGE_LOOP ( 'NONE', ( #289, #198, #170, #84, #229, #26, #203, #160 ) ) ;
#333 = VECTOR ( 'NONE', #194, 1000.000000000000000 ) ;
#334 = ADVANCED_FACE ( 'NONE', ( #264 ), #147, .F. ) ;
ENDSEC;
END-ISO-10303-21;
