ISO-10303-21;
HEADER;
FILE_DESCRIPTION (( 'STEP AP214' ),
    '1' );
FILE_NAME ('191819.STEP',
    '2020-02-13T11:22:25',
    ( '' ),
    ( '' ),
    'SwSTEP 2.0',
    'SolidWorks 2018',
    '' );
FILE_SCHEMA (( 'AUTOMOTIVE_DESIGN' ));
ENDSEC;

DATA;
#1 = DIRECTION ( 'NONE',  ( -0.0000000000000000000, -0.0000000000000000000, -1.000000000000000000 ) ) ;
#2 = PRODUCT_DEFINITION ( 'UNKNOWN', '', #108, #318 ) ;
#3 = LINE ( 'NONE', #330, #297 ) ;
#4 = FILL_AREA_STYLE_COLOUR ( '', #231 ) ;
#5 = LINE ( 'NONE', #92, #153 ) ;
#6 = DIRECTION ( 'NONE',  ( 1.000000000000000000, 0.0000000000000000000, 0.0000000000000000000 ) ) ;
#7 =( LENGTH_UNIT ( ) NAMED_UNIT ( * ) SI_UNIT ( .MILLI., .METRE. ) );
#8 =( NAMED_UNIT ( * ) SI_UNIT ( $, .STERADIAN. ) SOLID_ANGLE_UNIT ( ) );
#9 = ORIENTED_EDGE ( 'NONE', *, *, #191, .T. ) ;
#10 = ORIENTED_EDGE ( 'NONE', *, *, #132, .T. ) ;
#11 = VECTOR ( 'NONE', #242, 1000.000000000000000 ) ;
#12 = CARTESIAN_POINT ( 'NONE',  ( 54.00000000000000000, -1.999999999999998668, -10.00000000000000000 ) ) ;
#13 = LINE ( 'NONE', #325, #168 ) ;
#14 = CARTESIAN_POINT ( 'NONE',  ( 54.00000000000000000, -0.7499999999999986677, -10.00000000000000000 ) ) ;
#15 = ORIENTED_EDGE ( 'NONE', *, *, #155, .T. ) ;
#16 = CARTESIAN_POINT ( 'NONE',  ( 54.00000000000000000, -1.999999999999998668, -10.00000000000000000 ) ) ;
#17 = VECTOR ( 'NONE', #185, 1000.000000000000000 ) ;
#18 = DIRECTION ( 'NONE',  ( 0.0000000000000000000, 0.0000000000000000000, -1.000000000000000000 ) ) ;
#19 = VECTOR ( 'NONE', #265, 1000.000000000000000 ) ;
#20 = DIRECTION ( 'NONE',  ( 0.0000000000000000000, 0.0000000000000000000, 1.000000000000000000 ) ) ;
#21 = ORIENTED_EDGE ( 'NONE', *, *, #115, .T. ) ;
#22 = PLANE ( 'NONE',  #123 ) ;
#23 = DIRECTION ( 'NONE',  ( -1.000000000000000000, 0.0000000000000000000, 0.0000000000000000000 ) ) ;
#24 = AXIS2_PLACEMENT_3D ( 'NONE', #283, #151, #6 ) ;
#25 = DIRECTION ( 'NONE',  ( -0.0000000000000000000, 1.000000000000000000, 0.0000000000000000000 ) ) ;
#26 = VERTEX_POINT ( 'NONE', #255 ) ;
#27 = PRESENTATION_STYLE_ASSIGNMENT (( #96 ) ) ;
#28 = ORIENTED_EDGE ( 'NONE', *, *, #270, .T. ) ;
#29 = ORIENTED_EDGE ( 'NONE', *, *, #317, .T. ) ;
#30 = VECTOR ( 'NONE', #326, 1000.000000000000000 ) ;
#31 = LINE ( 'NONE', #271, #176 ) ;
#32 = DIRECTION ( 'NONE',  ( 0.0000000000000000000, 0.0000000000000000000, 1.000000000000000000 ) ) ;
#33 = DIRECTION ( 'NONE',  ( -0.0000000000000000000, 1.000000000000000000, -0.0000000000000000000 ) ) ;
#34 = UNCERTAINTY_MEASURE_WITH_UNIT (LENGTH_MEASURE( 1.000000000000000082E-05 ), #312, 'distance_accuracy_value', 'NONE');
#35 = CARTESIAN_POINT ( 'NONE',  ( 54.00000000000000000, -1.999999999999998668, 0.0000000000000000000 ) ) ;
#36 = CARTESIAN_POINT ( 'NONE',  ( -6.000000000000000000, -0.7499999999999986677, -22.00000000000000000 ) ) ;
#37 = CARTESIAN_POINT ( 'NONE',  ( -6.000000000000000000, 0.7500000000000013323, -22.00000000000000000 ) ) ;
#38 = LINE ( 'NONE', #212, #314 ) ;
#39 = FACE_OUTER_BOUND ( 'NONE', #294, .T. ) ;
#40 = PLANE ( 'NONE',  #239 ) ;
#41 = DIRECTION ( 'NONE',  ( 1.000000000000000000, 0.0000000000000000000, -0.0000000000000000000 ) ) ;
#42 = EDGE_LOOP ( 'NONE', ( #150, #197, #253, #261 ) ) ;
#43 = CARTESIAN_POINT ( 'NONE',  ( -6.000000000000000000, -1.999999999999998668, -10.00000000000000000 ) ) ;
#44 = CARTESIAN_POINT ( 'NONE',  ( -6.000000000000000000, 2.000000000000001332, -10.00000000000000000 ) ) ;
#45 =( GEOMETRIC_REPRESENTATION_CONTEXT ( 3 ) GLOBAL_UNCERTAINTY_ASSIGNED_CONTEXT ( ( #240 ) ) GLOBAL_UNIT_ASSIGNED_CONTEXT ( ( #7, #50, #69 ) ) REPRESENTATION_CONTEXT ( 'NONE', 'WORKASPACE' ) );
#46 = FILL_AREA_STYLE ('',( #4 ) ) ;
#47 = VECTOR ( 'NONE', #215, 1000.000000000000000 ) ;
#48 = LINE ( 'NONE', #194, #272 ) ;
#49 = ORIENTED_EDGE ( 'NONE', *, *, #191, .F. ) ;
#50 =( NAMED_UNIT ( * ) PLANE_ANGLE_UNIT ( ) SI_UNIT ( $, .RADIAN. ) );
#51 = ORIENTED_EDGE ( 'NONE', *, *, #202, .F. ) ;
#52 = STYLED_ITEM ( 'NONE', ( #122 ), #103 ) ;
#53 = LINE ( 'NONE', #54, #17 ) ;
#54 = CARTESIAN_POINT ( 'NONE',  ( 54.00000000000000000, -0.7499999999999986677, -10.00000000000000000 ) ) ;
#55 = VERTEX_POINT ( 'NONE', #307 ) ;
#56 = DIRECTION ( 'NONE',  ( 0.0000000000000000000, 1.000000000000000000, 0.0000000000000000000 ) ) ;
#57 = AXIS2_PLACEMENT_3D ( 'NONE', #274, #107, #59 ) ;
#58 = ORIENTED_EDGE ( 'NONE', *, *, #87, .F. ) ;
#59 = DIRECTION ( 'NONE',  ( 1.000000000000000000, 0.0000000000000000000, 0.0000000000000000000 ) ) ;
#60 = DIRECTION ( 'NONE',  ( -1.000000000000000000, 0.0000000000000000000, -0.0000000000000000000 ) ) ;
#61 = CARTESIAN_POINT ( 'NONE',  ( 54.00000000000000000, 2.000000000000001332, -10.00000000000000000 ) ) ;
#62 = FACE_OUTER_BOUND ( 'NONE', #114, .T. ) ;
#63 = LINE ( 'NONE', #305, #97 ) ;
#64 = FILL_AREA_STYLE ('',( #284 ) ) ;
#65 = VECTOR ( 'NONE', #91, 1000.000000000000000 ) ;
#66 = EDGE_LOOP ( 'NONE', ( #183, #267, #163, #21, #89, #125, #28, #193 ) ) ;
#67 = LINE ( 'NONE', #79, #19 ) ;
#68 = ORIENTED_EDGE ( 'NONE', *, *, #286, .F. ) ;
#69 =( NAMED_UNIT ( * ) SI_UNIT ( $, .STERADIAN. ) SOLID_ANGLE_UNIT ( ) );
#70 = ADVANCED_FACE ( 'NONE', ( #81 ), #40, .T. ) ;
#71 = VECTOR ( 'NONE', #211, 1000.000000000000000 ) ;
#72 = EDGE_LOOP ( 'NONE', ( #268, #334, #165, #220 ) ) ;
#73 = VERTEX_POINT ( 'NONE', #224 ) ;
#74 = ADVANCED_FACE ( 'NONE', ( #39 ), #22, .F. ) ;
#75 = ADVANCED_FACE ( 'NONE', ( #232 ), #147, .F. ) ;
#76 = EDGE_CURVE ( 'NONE', #199, #273, #209, .T. ) ;
#77 = CARTESIAN_POINT ( 'NONE',  ( -6.000000000000000000, -1.999999999999998668, 0.0000000000000000000 ) ) ;
#78 = LINE ( 'NONE', #162, #30 ) ;
#79 = CARTESIAN_POINT ( 'NONE',  ( -6.000000000000000000, 2.000000000000001332, 0.0000000000000000000 ) ) ;
#80 = DIRECTION ( 'NONE',  ( -1.000000000000000000, -0.0000000000000000000, -0.0000000000000000000 ) ) ;
#81 = FACE_OUTER_BOUND ( 'NONE', #184, .T. ) ;
#82 = ORIENTED_EDGE ( 'NONE', *, *, #206, .F. ) ;
#83 = ORIENTED_EDGE ( 'NONE', *, *, #76, .T. ) ;
#84 = CARTESIAN_POINT ( 'NONE',  ( 54.00000000000000000, 0.7500000000000013323, -10.00000000000000000 ) ) ;
#85 = DIRECTION ( 'NONE',  ( -1.000000000000000000, 0.0000000000000000000, 0.0000000000000000000 ) ) ;
#86 = DIRECTION ( 'NONE',  ( -1.000000000000000000, -0.0000000000000000000, -0.0000000000000000000 ) ) ;
#87 = EDGE_CURVE ( 'NONE', #289, #188, #169, .T. ) ;
#88 = SURFACE_STYLE_FILL_AREA ( #46 ) ;
#89 = ORIENTED_EDGE ( 'NONE', *, *, #100, .T. ) ;
#90 = SURFACE_STYLE_USAGE ( .BOTH. , #217 ) ;
#91 = DIRECTION ( 'NONE',  ( 0.0000000000000000000, 1.000000000000000000, 0.0000000000000000000 ) ) ;
#92 = CARTESIAN_POINT ( 'NONE',  ( 54.00000000000000000, 2.000000000000001332, 0.0000000000000000000 ) ) ;
#93 = DIRECTION ( 'NONE',  ( 0.0000000000000000000, -0.0000000000000000000, 1.000000000000000000 ) ) ;
#94 =( NAMED_UNIT ( * ) PLANE_ANGLE_UNIT ( ) SI_UNIT ( $, .RADIAN. ) );
#95 = FACE_OUTER_BOUND ( 'NONE', #210, .T. ) ;
#96 = SURFACE_STYLE_USAGE ( .BOTH. , #180 ) ;
#97 = VECTOR ( 'NONE', #262, 1000.000000000000000 ) ;
#98 = EDGE_CURVE ( 'NONE', #222, #26, #48, .T. ) ;
#99 = ADVANCED_FACE ( 'NONE', ( #134 ), #192, .F. ) ;
#100 = EDGE_CURVE ( 'NONE', #289, #55, #200, .T. ) ;
#101 = FACE_OUTER_BOUND ( 'NONE', #72, .T. ) ;
#102 = ORIENTED_EDGE ( 'NONE', *, *, #171, .F. ) ;
#103 = MANIFOLD_SOLID_BREP ( 'Aufsatz-Linear austragen1', #245 ) ;
#104 = ORIENTED_EDGE ( 'NONE', *, *, #173, .F. ) ;
#105 = CARTESIAN_POINT ( 'NONE',  ( 54.00000000000000000, 0.7500000000000013323, -10.00000000000000000 ) ) ;
#106 = ORIENTED_EDGE ( 'NONE', *, *, #76, .F. ) ;
#107 = DIRECTION ( 'NONE',  ( -0.0000000000000000000, 0.0000000000000000000, 1.000000000000000000 ) ) ;
#108 = PRODUCT_DEFINITION_FORMATION_WITH_SPECIFIED_SOURCE ( 'ANY', '', #313, .NOT_KNOWN. ) ;
#109 = DIRECTION ( 'NONE',  ( 0.0000000000000000000, 0.0000000000000000000, -1.000000000000000000 ) ) ;
#110 = ORIENTED_EDGE ( 'NONE', *, *, #171, .T. ) ;
#111 = DIRECTION ( 'NONE',  ( 0.0000000000000000000, -1.000000000000000000, 0.0000000000000000000 ) ) ;
#112 = CARTESIAN_POINT ( 'NONE',  ( -6.000000000000000000, -0.7499999999999986677, -10.00000000000000000 ) ) ;
#113 = DIRECTION ( 'NONE',  ( 0.0000000000000000000, 0.0000000000000000000, -1.000000000000000000 ) ) ;
#114 = EDGE_LOOP ( 'NONE', ( #15, #83, #82, #306 ) ) ;
#115 = EDGE_CURVE ( 'NONE', #175, #289, #182, .T. ) ;
#116 = DIRECTION ( 'NONE',  ( -1.000000000000000000, -0.0000000000000000000, -0.0000000000000000000 ) ) ;
#117 = EDGE_CURVE ( 'NONE', #188, #250, #63, .T. ) ;
#118 =( NAMED_UNIT ( * ) PLANE_ANGLE_UNIT ( ) SI_UNIT ( $, .RADIAN. ) );
#119 = LINE ( 'NONE', #195, #256 ) ;
#120 = ORIENTED_EDGE ( 'NONE', *, *, #100, .F. ) ;
#121 = APPLICATION_CONTEXT ( 'automotive_design' ) ;
#122 = PRESENTATION_STYLE_ASSIGNMENT (( #90 ) ) ;
#123 = AXIS2_PLACEMENT_3D ( 'NONE', #219, #144, #41 ) ;
#124 = ORIENTED_EDGE ( 'NONE', *, *, #243, .T. ) ;
#125 = ORIENTED_EDGE ( 'NONE', *, *, #152, .T. ) ;
#126 = DIRECTION ( 'NONE',  ( -1.000000000000000000, -0.0000000000000000000, -0.0000000000000000000 ) ) ;
#127 = LINE ( 'NONE', #112, #71 ) ;
#128 = VECTOR ( 'NONE', #113, 1000.000000000000000 ) ;
#129 = PRESENTATION_LAYER_ASSIGNMENT (  '', '', ( #259 ) ) ;
#130 = PLANE ( 'NONE',  #324 ) ;
#131 = VERTEX_POINT ( 'NONE', #146 ) ;
#132 = EDGE_CURVE ( 'NONE', #26, #154, #5, .T. ) ;
#133 = PLANE ( 'NONE',  #213 ) ;
#134 = FACE_OUTER_BOUND ( 'NONE', #228, .T. ) ;
#135 = DIRECTION ( 'NONE',  ( -1.000000000000000000, -0.0000000000000000000, -0.0000000000000000000 ) ) ;
#136 = EDGE_CURVE ( 'NONE', #280, #175, #53, .T. ) ;
#137 = ORIENTED_EDGE ( 'NONE', *, *, #117, .F. ) ;
#138 = CARTESIAN_POINT ( 'NONE',  ( 54.00000000000000000, -0.7499999999999986677, -22.00000000000000000 ) ) ;
#139 = SHAPE_DEFINITION_REPRESENTATION ( #233, #157 ) ;
#140 = VECTOR ( 'NONE', #246, 1000.000000000000000 ) ;
#141 = ORIENTED_EDGE ( 'NONE', *, *, #115, .F. ) ;
#142 = EDGE_LOOP ( 'NONE', ( #10, #110, #322, #290 ) ) ;
#143 = ORIENTED_EDGE ( 'NONE', *, *, #317, .F. ) ;
#144 = DIRECTION ( 'NONE',  ( 0.0000000000000000000, 0.0000000000000000000, 1.000000000000000000 ) ) ;
#145 = CARTESIAN_POINT ( 'NONE',  ( 54.00000000000000000, -0.7499999999999986677, -10.00000000000000000 ) ) ;
#146 = CARTESIAN_POINT ( 'NONE',  ( -6.000000000000000000, -0.7499999999999986677, -10.00000000000000000 ) ) ;
#147 = PLANE ( 'NONE',  #275 ) ;
#148 = VECTOR ( 'NONE', #80, 1000.000000000000000 ) ;
#149 = PRODUCT_CONTEXT ( 'NONE', #121, 'mechanical' ) ;
#150 = ORIENTED_EDGE ( 'NONE', *, *, #173, .T. ) ;
#151 = DIRECTION ( 'NONE',  ( 0.0000000000000000000, 0.0000000000000000000, 1.000000000000000000 ) ) ;
#152 = EDGE_CURVE ( 'NONE', #55, #235, #226, .T. ) ;
#153 = VECTOR ( 'NONE', #126, 1000.000000000000000 ) ;
#154 = VERTEX_POINT ( 'NONE', #296 ) ;
#155 = EDGE_CURVE ( 'NONE', #235, #199, #216, .T. ) ;
#156 = CARTESIAN_POINT ( 'NONE',  ( 54.00000000000000000, 0.7500000000000013323, -22.00000000000000000 ) ) ;
#157 = ADVANCED_BREP_SHAPE_REPRESENTATION ( '191819', ( #103, #24 ), #45 ) ;
#158 = FACE_OUTER_BOUND ( 'NONE', #42, .T. ) ;
#159 = VECTOR ( 'NONE', #308, 1000.000000000000000 ) ;
#160 = VERTEX_POINT ( 'NONE', #77 ) ;
#161 = CARTESIAN_POINT ( 'NONE',  ( 54.00000000000000000, -1.999999999999998668, -10.00000000000000000 ) ) ;
#162 = CARTESIAN_POINT ( 'NONE',  ( -6.000000000000000000, 2.000000000000001332, -10.00000000000000000 ) ) ;
#163 = ORIENTED_EDGE ( 'NONE', *, *, #136, .T. ) ;
#164 = PLANE ( 'NONE',  #227 ) ;
#165 = ORIENTED_EDGE ( 'NONE', *, *, #132, .F. ) ;
#166 = PLANE ( 'NONE',  #282 ) ;
#167 = DIRECTION ( 'NONE',  ( 0.0000000000000000000, 0.0000000000000000000, 1.000000000000000000 ) ) ;
#168 = VECTOR ( 'NONE', #33, 1000.000000000000000 ) ;
#169 = LINE ( 'NONE', #287, #293 ) ;
#170 = UNCERTAINTY_MEASURE_WITH_UNIT (LENGTH_MEASURE( 1.000000000000000082E-05 ), #331, 'distance_accuracy_value', 'NONE');
#171 = EDGE_CURVE ( 'NONE', #154, #160, #67, .T. ) ;
#172 = DIRECTION ( 'NONE',  ( -0.0000000000000000000, -0.0000000000000000000, -1.000000000000000000 ) ) ;
#173 = EDGE_CURVE ( 'NONE', #280, #298, #266, .T. ) ;
#174 = CARTESIAN_POINT ( 'NONE',  ( 54.00000000000000000, -0.7499999999999986677, -10.00000000000000000 ) ) ;
#175 = VERTEX_POINT ( 'NONE', #205 ) ;
#176 = VECTOR ( 'NONE', #111, 1000.000000000000000 ) ;
#177 = ORIENTED_EDGE ( 'NONE', *, *, #187, .F. ) ;
#178 = ORIENTED_EDGE ( 'NONE', *, *, #302, .F. ) ;
#179 = APPLICATION_PROTOCOL_DEFINITION ( 'draft international standard', 'automotive_design', 1998, #121 ) ;
#180 = SURFACE_SIDE_STYLE ('',( #88 ) ) ;
#181 = ADVANCED_FACE ( 'NONE', ( #208 ), #130, .F. ) ;
#182 = LINE ( 'NONE', #145, #128 ) ;
#183 = ORIENTED_EDGE ( 'NONE', *, *, #247, .T. ) ;
#184 = EDGE_LOOP ( 'NONE', ( #102, #177, #106, #49, #137, #68, #51, #143 ) ) ;
#185 = DIRECTION ( 'NONE',  ( -0.0000000000000000000, 1.000000000000000000, -0.0000000000000000000 ) ) ;
#186 = EDGE_CURVE ( 'NONE', #73, #160, #248, .T. ) ;
#187 = EDGE_CURVE ( 'NONE', #273, #154, #78, .T. ) ;
#188 = VERTEX_POINT ( 'NONE', #36 ) ;
#189 = CARTESIAN_POINT ( 'NONE',  ( 54.00000000000000000, 0.7500000000000013323, -22.00000000000000000 ) ) ;
#190 = SURFACE_STYLE_FILL_AREA ( #64 ) ;
#191 = EDGE_CURVE ( 'NONE', #250, #199, #327, .T. ) ;
#192 = PLANE ( 'NONE',  #309 ) ;
#193 = ORIENTED_EDGE ( 'NONE', *, *, #98, .T. ) ;
#194 = CARTESIAN_POINT ( 'NONE',  ( 54.00000000000000000, 2.000000000000001332, -10.00000000000000000 ) ) ;
#195 = CARTESIAN_POINT ( 'NONE',  ( -6.000000000000000000, -1.999999999999998668, -10.00000000000000000 ) ) ;
#196 = FACE_OUTER_BOUND ( 'NONE', #66, .T. ) ;
#197 = ORIENTED_EDGE ( 'NONE', *, *, #202, .T. ) ;
#198 = MECHANICAL_DESIGN_GEOMETRIC_PRESENTATION_REPRESENTATION (  '', ( #52 ), #218 ) ;
#199 = VERTEX_POINT ( 'NONE', #323 ) ;
#200 = LINE ( 'NONE', #251, #65 ) ;
#201 = ADVANCED_FACE ( 'NONE', ( #196 ), #166, .F. ) ;
#202 = EDGE_CURVE ( 'NONE', #298, #131, #127, .T. ) ;
#203 = PRODUCT_RELATED_PRODUCT_CATEGORY ( 'part', '', ( #313 ) ) ;
#204 = LINE ( 'NONE', #189, #140 ) ;
#205 = CARTESIAN_POINT ( 'NONE',  ( 54.00000000000000000, -0.7499999999999986677, -10.00000000000000000 ) ) ;
#206 = EDGE_CURVE ( 'NONE', #222, #273, #315, .T. ) ;
#207 = ORIENTED_EDGE ( 'NONE', *, *, #229, .T. ) ;
#208 = FACE_OUTER_BOUND ( 'NONE', #142, .T. ) ;
#209 = LINE ( 'NONE', #44, #159 ) ;
#210 = EDGE_LOOP ( 'NONE', ( #328, #29, #104, #178 ) ) ;
#211 = DIRECTION ( 'NONE',  ( -0.0000000000000000000, 1.000000000000000000, -0.0000000000000000000 ) ) ;
#212 = CARTESIAN_POINT ( 'NONE',  ( -6.000000000000000000, -0.7499999999999986677, -10.00000000000000000 ) ) ;
#213 = AXIS2_PLACEMENT_3D ( 'NONE', #161, #56, #241 ) ;
#214 = DIRECTION ( 'NONE',  ( -0.0000000000000000000, 0.0000000000000000000, 1.000000000000000000 ) ) ;
#215 = DIRECTION ( 'NONE',  ( 0.0000000000000000000, 0.0000000000000000000, 1.000000000000000000 ) ) ;
#216 = LINE ( 'NONE', #105, #292 ) ;
#217 = SURFACE_SIDE_STYLE ('',( #190 ) ) ;
#218 =( GEOMETRIC_REPRESENTATION_CONTEXT ( 3 ) GLOBAL_UNCERTAINTY_ASSIGNED_CONTEXT ( ( #170 ) ) GLOBAL_UNIT_ASSIGNED_CONTEXT ( ( #331, #118, #333 ) ) REPRESENTATION_CONTEXT ( 'NONE', 'WORKASPACE' ) );
#219 = CARTESIAN_POINT ( 'NONE',  ( 54.00000000000000000, -0.7499999999999986677, -22.00000000000000000 ) ) ;
#220 = ORIENTED_EDGE ( 'NONE', *, *, #98, .F. ) ;
#221 = DIRECTION ( 'NONE',  ( 0.0000000000000000000, -0.0000000000000000000, -1.000000000000000000 ) ) ;
#222 = VERTEX_POINT ( 'NONE', #61 ) ;
#223 = CARTESIAN_POINT ( 'NONE',  ( 54.00000000000000000, 0.7500000000000013323, -22.00000000000000000 ) ) ;
#224 = CARTESIAN_POINT ( 'NONE',  ( 54.00000000000000000, -1.999999999999998668, 0.0000000000000000000 ) ) ;
#225 = DIRECTION ( 'NONE',  ( 0.0000000000000000000, -0.0000000000000000000, -1.000000000000000000 ) ) ;
#226 = LINE ( 'NONE', #156, #278 ) ;
#227 = AXIS2_PLACEMENT_3D ( 'NONE', #269, #285, #225 ) ;
#228 = EDGE_LOOP ( 'NONE', ( #124, #9, #249, #332 ) ) ;
#229 = EDGE_CURVE ( 'NONE', #175, #131, #295, .T. ) ;
#230 = ADVANCED_FACE ( 'NONE', ( #62 ), #304, .F. ) ;
#231 = COLOUR_RGB ( '',0.7921568627450980005, 0.8196078431372548767, 0.9333333333333333481 ) ;
#232 = FACE_OUTER_BOUND ( 'NONE', #260, .T. ) ;
#233 = PRODUCT_DEFINITION_SHAPE ( 'NONE', 'NONE',  #2 ) ;
#234 = MECHANICAL_DESIGN_GEOMETRIC_PRESENTATION_REPRESENTATION (  '', ( #259 ), #254 ) ;
#235 = VERTEX_POINT ( 'NONE', #84 ) ;
#236 = DIRECTION ( 'NONE',  ( -1.000000000000000000, -0.0000000000000000000, -0.0000000000000000000 ) ) ;
#237 = AXIS2_PLACEMENT_3D ( 'NONE', #279, #214, #300 ) ;
#238 = VECTOR ( 'NONE', #86, 1000.000000000000000 ) ;
#239 = AXIS2_PLACEMENT_3D ( 'NONE', #252, #23, #20 ) ;
#240 = UNCERTAINTY_MEASURE_WITH_UNIT (LENGTH_MEASURE( 1.000000000000000082E-05 ), #7, 'distance_accuracy_value', 'NONE');
#241 = DIRECTION ( 'NONE',  ( 0.0000000000000000000, -0.0000000000000000000, 1.000000000000000000 ) ) ;
#242 = DIRECTION ( 'NONE',  ( -1.000000000000000000, -0.0000000000000000000, -0.0000000000000000000 ) ) ;
#243 = EDGE_CURVE ( 'NONE', #55, #250, #204, .T. ) ;
#244 = CARTESIAN_POINT ( 'NONE',  ( 54.00000000000000000, 0.0000000000000000000, 0.0000000000000000000 ) ) ;
#245 = CLOSED_SHELL ( 'NONE', ( #181, #258, #264, #75, #74, #99, #230, #291, #201, #70 ) ) ;
#246 = DIRECTION ( 'NONE',  ( -1.000000000000000000, -0.0000000000000000000, -0.0000000000000000000 ) ) ;
#247 = EDGE_CURVE ( 'NONE', #26, #73, #31, .T. ) ;
#248 = LINE ( 'NONE', #35, #11 ) ;
#249 = ORIENTED_EDGE ( 'NONE', *, *, #155, .F. ) ;
#250 = VERTEX_POINT ( 'NONE', #319 ) ;
#251 = CARTESIAN_POINT ( 'NONE',  ( 54.00000000000000000, -0.7499999999999986677, -22.00000000000000000 ) ) ;
#252 = CARTESIAN_POINT ( 'NONE',  ( -6.000000000000000000, 0.0000000000000000000, 0.0000000000000000000 ) ) ;
#253 = ORIENTED_EDGE ( 'NONE', *, *, #229, .F. ) ;
#254 =( GEOMETRIC_REPRESENTATION_CONTEXT ( 3 ) GLOBAL_UNCERTAINTY_ASSIGNED_CONTEXT ( ( #34 ) ) GLOBAL_UNIT_ASSIGNED_CONTEXT ( ( #312, #94, #8 ) ) REPRESENTATION_CONTEXT ( 'NONE', 'WORKASPACE' ) );
#255 = CARTESIAN_POINT ( 'NONE',  ( 54.00000000000000000, 2.000000000000001332, 0.0000000000000000000 ) ) ;
#256 = VECTOR ( 'NONE', #1, 1000.000000000000000 ) ;
#257 = COLOUR_RGB ( '',0.7921568627450980005, 0.8196078431372548767, 0.9333333333333333481 ) ;
#258 = ADVANCED_FACE ( 'NONE', ( #95 ), #133, .F. ) ;
#259 = STYLED_ITEM ( 'NONE', ( #27 ), #157 ) ;
#260 = EDGE_LOOP ( 'NONE', ( #207, #299, #58, #141 ) ) ;
#261 = ORIENTED_EDGE ( 'NONE', *, *, #136, .F. ) ;
#262 = DIRECTION ( 'NONE',  ( 0.0000000000000000000, 1.000000000000000000, 0.0000000000000000000 ) ) ;
#263 = CARTESIAN_POINT ( 'NONE',  ( 54.00000000000000000, 2.000000000000001332, 0.0000000000000000000 ) ) ;
#264 = ADVANCED_FACE ( 'NONE', ( #158 ), #320, .F. ) ;
#265 = DIRECTION ( 'NONE',  ( 0.0000000000000000000, -1.000000000000000000, 0.0000000000000000000 ) ) ;
#266 = LINE ( 'NONE', #12, #148 ) ;
#267 = ORIENTED_EDGE ( 'NONE', *, *, #302, .T. ) ;
#268 = ORIENTED_EDGE ( 'NONE', *, *, #206, .T. ) ;
#269 = CARTESIAN_POINT ( 'NONE',  ( 54.00000000000000000, 2.000000000000001332, -10.00000000000000000 ) ) ;
#270 = EDGE_CURVE ( 'NONE', #235, #222, #13, .T. ) ;
#271 = CARTESIAN_POINT ( 'NONE',  ( 54.00000000000000000, 2.000000000000001332, 0.0000000000000000000 ) ) ;
#272 = VECTOR ( 'NONE', #167, 1000.000000000000000 ) ;
#273 = VERTEX_POINT ( 'NONE', #303 ) ;
#274 = CARTESIAN_POINT ( 'NONE',  ( 54.00000000000000000, -0.7499999999999986677, -10.00000000000000000 ) ) ;
#275 = AXIS2_PLACEMENT_3D ( 'NONE', #174, #25, #93 ) ;
#276 = CARTESIAN_POINT ( 'NONE',  ( 54.00000000000000000, 2.000000000000001332, -10.00000000000000000 ) ) ;
#277 = DIRECTION ( 'NONE',  ( 0.0000000000000000000, 0.0000000000000000000, 1.000000000000000000 ) ) ;
#278 = VECTOR ( 'NONE', #32, 1000.000000000000000 ) ;
#279 = CARTESIAN_POINT ( 'NONE',  ( 54.00000000000000000, 2.000000000000001332, -10.00000000000000000 ) ) ;
#280 = VERTEX_POINT ( 'NONE', #16 ) ;
#281 = DIRECTION ( 'NONE',  ( 0.0000000000000000000, -1.000000000000000000, 0.0000000000000000000 ) ) ;
#282 = AXIS2_PLACEMENT_3D ( 'NONE', #244, #85, #277 ) ;
#283 = CARTESIAN_POINT ( 'NONE',  ( 0.0000000000000000000, 0.0000000000000000000, 0.0000000000000000000 ) ) ;
#284 = FILL_AREA_STYLE_COLOUR ( '', #257 ) ;
#285 = DIRECTION ( 'NONE',  ( 0.0000000000000000000, -1.000000000000000000, 0.0000000000000000000 ) ) ;
#286 = EDGE_CURVE ( 'NONE', #131, #188, #38, .T. ) ;
#287 = CARTESIAN_POINT ( 'NONE',  ( 54.00000000000000000, -0.7499999999999986677, -22.00000000000000000 ) ) ;
#288 = VECTOR ( 'NONE', #135, 1000.000000000000000 ) ;
#289 = VERTEX_POINT ( 'NONE', #138 ) ;
#290 = ORIENTED_EDGE ( 'NONE', *, *, #247, .F. ) ;
#291 = ADVANCED_FACE ( 'NONE', ( #101 ), #164, .F. ) ;
#292 = VECTOR ( 'NONE', #236, 1000.000000000000000 ) ;
#293 = VECTOR ( 'NONE', #116, 1000.000000000000000 ) ;
#294 = EDGE_LOOP ( 'NONE', ( #321, #316, #329, #120 ) ) ;
#295 = LINE ( 'NONE', #14, #288 ) ;
#296 = CARTESIAN_POINT ( 'NONE',  ( -6.000000000000000000, 2.000000000000001332, 0.0000000000000000000 ) ) ;
#297 = VECTOR ( 'NONE', #172, 1000.000000000000000 ) ;
#298 = VERTEX_POINT ( 'NONE', #43 ) ;
#299 = ORIENTED_EDGE ( 'NONE', *, *, #286, .T. ) ;
#300 = DIRECTION ( 'NONE',  ( 1.000000000000000000, 0.0000000000000000000, 0.0000000000000000000 ) ) ;
#301 = PRESENTATION_LAYER_ASSIGNMENT (  '', '', ( #52 ) ) ;
#302 = EDGE_CURVE ( 'NONE', #73, #280, #3, .T. ) ;
#303 = CARTESIAN_POINT ( 'NONE',  ( -6.000000000000000000, 2.000000000000001332, -10.00000000000000000 ) ) ;
#304 = PLANE ( 'NONE',  #237 ) ;
#305 = CARTESIAN_POINT ( 'NONE',  ( -6.000000000000000000, -0.7499999999999986677, -22.00000000000000000 ) ) ;
#306 = ORIENTED_EDGE ( 'NONE', *, *, #270, .F. ) ;
#307 = CARTESIAN_POINT ( 'NONE',  ( 54.00000000000000000, 0.7500000000000013323, -22.00000000000000000 ) ) ;
#308 = DIRECTION ( 'NONE',  ( -0.0000000000000000000, 1.000000000000000000, -0.0000000000000000000 ) ) ;
#309 = AXIS2_PLACEMENT_3D ( 'NONE', #223, #281, #221 ) ;
#310 = APPLICATION_PROTOCOL_DEFINITION ( 'draft international standard', 'automotive_design', 1998, #311 ) ;
#311 = APPLICATION_CONTEXT ( 'automotive_design' ) ;
#312 =( LENGTH_UNIT ( ) NAMED_UNIT ( * ) SI_UNIT ( .MILLI., .METRE. ) );
#313 = PRODUCT ( '191819', '191819', '', ( #149 ) ) ;
#314 = VECTOR ( 'NONE', #109, 1000.000000000000000 ) ;
#315 = LINE ( 'NONE', #276, #238 ) ;
#316 = ORIENTED_EDGE ( 'NONE', *, *, #117, .T. ) ;
#317 = EDGE_CURVE ( 'NONE', #160, #298, #119, .T. ) ;
#318 = PRODUCT_DEFINITION_CONTEXT ( 'detailed design', #311, 'design' ) ;
#319 = CARTESIAN_POINT ( 'NONE',  ( -6.000000000000000000, 0.7500000000000013323, -22.00000000000000000 ) ) ;
#320 = PLANE ( 'NONE',  #57 ) ;
#321 = ORIENTED_EDGE ( 'NONE', *, *, #87, .T. ) ;
#322 = ORIENTED_EDGE ( 'NONE', *, *, #186, .F. ) ;
#323 = CARTESIAN_POINT ( 'NONE',  ( -6.000000000000000000, 0.7500000000000013323, -10.00000000000000000 ) ) ;
#324 = AXIS2_PLACEMENT_3D ( 'NONE', #263, #18, #60 ) ;
#325 = CARTESIAN_POINT ( 'NONE',  ( 54.00000000000000000, 2.000000000000001332, -10.00000000000000000 ) ) ;
#326 = DIRECTION ( 'NONE',  ( 0.0000000000000000000, 0.0000000000000000000, 1.000000000000000000 ) ) ;
#327 = LINE ( 'NONE', #37, #47 ) ;
#328 = ORIENTED_EDGE ( 'NONE', *, *, #186, .T. ) ;
#329 = ORIENTED_EDGE ( 'NONE', *, *, #243, .F. ) ;
#330 = CARTESIAN_POINT ( 'NONE',  ( 54.00000000000000000, -1.999999999999998668, -10.00000000000000000 ) ) ;
#331 =( LENGTH_UNIT ( ) NAMED_UNIT ( * ) SI_UNIT ( .MILLI., .METRE. ) );
#332 = ORIENTED_EDGE ( 'NONE', *, *, #152, .F. ) ;
#333 =( NAMED_UNIT ( * ) SI_UNIT ( $, .STERADIAN. ) SOLID_ANGLE_UNIT ( ) );
#334 = ORIENTED_EDGE ( 'NONE', *, *, #187, .T. ) ;
ENDSEC;
END-ISO-10303-21;
