ISO-10303-21;
HEADER;
FILE_DESCRIPTION (( 'STEP AP214' ),
    '1' );
FILE_NAME ('191815.STEP',
    '2020-02-13T11:21:17',
    ( '' ),
    ( '' ),
    'SwSTEP 2.0',
    'SolidWorks 2018',
    '' );
FILE_SCHEMA (( 'AUTOMOTIVE_DESIGN' ));
ENDSEC;

DATA;
#1 = PLANE ( 'NONE',  #174 ) ;
#2 = STYLED_ITEM ( 'NONE', ( #231 ), #255 ) ;
#3 = CARTESIAN_POINT ( 'NONE',  ( 486.0000000000000000, 2.000000000000001332, -10.00000000000000000 ) ) ;
#4 = DIRECTION ( 'NONE',  ( 0.0000000000000000000, 0.0000000000000000000, 1.000000000000000000 ) ) ;
#5 = VECTOR ( 'NONE', #288, 1000.000000000000000 ) ;
#6 = DIRECTION ( 'NONE',  ( 0.0000000000000000000, -0.0000000000000000000, -1.000000000000000000 ) ) ;
#7 = ORIENTED_EDGE ( 'NONE', *, *, #226, .F. ) ;
#8 = DIRECTION ( 'NONE',  ( -1.000000000000000000, -0.0000000000000000000, -0.0000000000000000000 ) ) ;
#9 = CARTESIAN_POINT ( 'NONE',  ( 486.0000000000000000, -0.7499999999999986677, -10.00000000000000000 ) ) ;
#10 = APPLICATION_PROTOCOL_DEFINITION ( 'draft international standard', 'automotive_design', 1998, #83 ) ;
#11 = EDGE_CURVE ( 'NONE', #163, #252, #28, .T. ) ;
#12 = EDGE_LOOP ( 'NONE', ( #277, #319, #310, #293 ) ) ;
#13 = UNCERTAINTY_MEASURE_WITH_UNIT (LENGTH_MEASURE( 1.000000000000000082E-05 ), #74, 'distance_accuracy_value', 'NONE');
#14 = PRODUCT_CONTEXT ( 'NONE', #83, 'mechanical' ) ;
#15 = PRODUCT ( '191815', '191815', '', ( #14 ) ) ;
#16 = ADVANCED_FACE ( 'NONE', ( #148 ), #103, .F. ) ;
#17 = VECTOR ( 'NONE', #244, 1000.000000000000000 ) ;
#18 = EDGE_CURVE ( 'NONE', #76, #73, #321, .T. ) ;
#19 = VECTOR ( 'NONE', #100, 1000.000000000000000 ) ;
#20 = VECTOR ( 'NONE', #34, 1000.000000000000000 ) ;
#21 = ORIENTED_EDGE ( 'NONE', *, *, #18, .T. ) ;
#22 = AXIS2_PLACEMENT_3D ( 'NONE', #116, #318, #6 ) ;
#23 = FACE_OUTER_BOUND ( 'NONE', #190, .T. ) ;
#24 = VECTOR ( 'NONE', #26, 1000.000000000000000 ) ;
#25 = VERTEX_POINT ( 'NONE', #27 ) ;
#26 = DIRECTION ( 'NONE',  ( -0.0000000000000000000, 1.000000000000000000, -0.0000000000000000000 ) ) ;
#27 = CARTESIAN_POINT ( 'NONE',  ( 486.0000000000000000, -0.7499999999999986677, -22.00000000000000000 ) ) ;
#28 = LINE ( 'NONE', #158, #24 ) ;
#29 = ORIENTED_EDGE ( 'NONE', *, *, #159, .T. ) ;
#30 = DIRECTION ( 'NONE',  ( 0.0000000000000000000, 0.0000000000000000000, 1.000000000000000000 ) ) ;
#31 = CARTESIAN_POINT ( 'NONE',  ( 486.0000000000000000, -0.7499999999999986677, -10.00000000000000000 ) ) ;
#32 = DIRECTION ( 'NONE',  ( 0.0000000000000000000, -0.0000000000000000000, -1.000000000000000000 ) ) ;
#33 = PRODUCT_DEFINITION ( 'UNKNOWN', '', #94, #229 ) ;
#34 = DIRECTION ( 'NONE',  ( 0.0000000000000000000, 0.0000000000000000000, 1.000000000000000000 ) ) ;
#35 = DIRECTION ( 'NONE',  ( -0.0000000000000000000, 1.000000000000000000, 0.0000000000000000000 ) ) ;
#36 = EDGE_CURVE ( 'NONE', #139, #243, #119, .T. ) ;
#37 = LINE ( 'NONE', #309, #313 ) ;
#38 = SURFACE_STYLE_USAGE ( .BOTH. , #136 ) ;
#39 = ORIENTED_EDGE ( 'NONE', *, *, #223, .F. ) ;
#40 =( NAMED_UNIT ( * ) SI_UNIT ( $, .STERADIAN. ) SOLID_ANGLE_UNIT ( ) );
#41 = LINE ( 'NONE', #56, #132 ) ;
#42 = AXIS2_PLACEMENT_3D ( 'NONE', #164, #246, #80 ) ;
#43 = FACE_OUTER_BOUND ( 'NONE', #233, .T. ) ;
#44 = ORIENTED_EDGE ( 'NONE', *, *, #36, .T. ) ;
#45 = CARTESIAN_POINT ( 'NONE',  ( -6.000000000000000000, 2.000000000000001332, 0.0000000000000000000 ) ) ;
#46 = EDGE_CURVE ( 'NONE', #128, #163, #37, .T. ) ;
#47 = DIRECTION ( 'NONE',  ( 0.0000000000000000000, 0.0000000000000000000, -1.000000000000000000 ) ) ;
#48 = VECTOR ( 'NONE', #260, 1000.000000000000000 ) ;
#49 = EDGE_CURVE ( 'NONE', #243, #76, #203, .T. ) ;
#50 = CARTESIAN_POINT ( 'NONE',  ( -6.000000000000000000, 0.0000000000000000000, 0.0000000000000000000 ) ) ;
#51 = DIRECTION ( 'NONE',  ( 0.0000000000000000000, -1.000000000000000000, 0.0000000000000000000 ) ) ;
#52 = DIRECTION ( 'NONE',  ( 0.0000000000000000000, 0.0000000000000000000, 1.000000000000000000 ) ) ;
#53 = VECTOR ( 'NONE', #235, 1000.000000000000000 ) ;
#54 = CARTESIAN_POINT ( 'NONE',  ( 486.0000000000000000, -0.7499999999999986677, -22.00000000000000000 ) ) ;
#55 = EDGE_CURVE ( 'NONE', #218, #163, #96, .T. ) ;
#56 = CARTESIAN_POINT ( 'NONE',  ( 486.0000000000000000, -0.7499999999999986677, -10.00000000000000000 ) ) ;
#57 = UNCERTAINTY_MEASURE_WITH_UNIT (LENGTH_MEASURE( 1.000000000000000082E-05 ), #86, 'distance_accuracy_value', 'NONE');
#58 = DIRECTION ( 'NONE',  ( -1.000000000000000000, -0.0000000000000000000, -0.0000000000000000000 ) ) ;
#59 = VERTEX_POINT ( 'NONE', #157 ) ;
#60 = ORIENTED_EDGE ( 'NONE', *, *, #200, .F. ) ;
#61 = DIRECTION ( 'NONE',  ( 0.0000000000000000000, 1.000000000000000000, 0.0000000000000000000 ) ) ;
#62 = PLANE ( 'NONE',  #22 ) ;
#63 = AXIS2_PLACEMENT_3D ( 'NONE', #115, #35, #165 ) ;
#64 = ORIENTED_EDGE ( 'NONE', *, *, #206, .T. ) ;
#65 = EDGE_CURVE ( 'NONE', #102, #139, #138, .T. ) ;
#66 = CARTESIAN_POINT ( 'NONE',  ( 486.0000000000000000, 2.000000000000001332, 0.0000000000000000000 ) ) ;
#67 = LINE ( 'NONE', #267, #222 ) ;
#68 = LINE ( 'NONE', #181, #300 ) ;
#69 = ORIENTED_EDGE ( 'NONE', *, *, #182, .F. ) ;
#70 = DIRECTION ( 'NONE',  ( 0.0000000000000000000, 0.0000000000000000000, 1.000000000000000000 ) ) ;
#71 = CARTESIAN_POINT ( 'NONE',  ( -6.000000000000000000, -0.7499999999999986677, -22.00000000000000000 ) ) ;
#72 =( GEOMETRIC_REPRESENTATION_CONTEXT ( 3 ) GLOBAL_UNCERTAINTY_ASSIGNED_CONTEXT ( ( #57 ) ) GLOBAL_UNIT_ASSIGNED_CONTEXT ( ( #86, #140, #169 ) ) REPRESENTATION_CONTEXT ( 'NONE', 'WORKASPACE' ) );
#73 = VERTEX_POINT ( 'NONE', #290 ) ;
#74 =( LENGTH_UNIT ( ) NAMED_UNIT ( * ) SI_UNIT ( .MILLI., .METRE. ) );
#75 = DIRECTION ( 'NONE',  ( 0.0000000000000000000, 0.0000000000000000000, -1.000000000000000000 ) ) ;
#76 = VERTEX_POINT ( 'NONE', #327 ) ;
#77 = CARTESIAN_POINT ( 'NONE',  ( 486.0000000000000000, -0.7499999999999986677, -10.00000000000000000 ) ) ;
#78 = ORIENTED_EDGE ( 'NONE', *, *, #161, .F. ) ;
#79 = AXIS2_PLACEMENT_3D ( 'NONE', #105, #130, #4 ) ;
#80 = DIRECTION ( 'NONE',  ( 1.000000000000000000, 0.0000000000000000000, 0.0000000000000000000 ) ) ;
#81 =( LENGTH_UNIT ( ) NAMED_UNIT ( * ) SI_UNIT ( .MILLI., .METRE. ) );
#82 = AXIS2_PLACEMENT_3D ( 'NONE', #50, #129, #236 ) ;
#83 = APPLICATION_CONTEXT ( 'automotive_design' ) ;
#84 = VECTOR ( 'NONE', #30, 1000.000000000000000 ) ;
#85 = ORIENTED_EDGE ( 'NONE', *, *, #108, .F. ) ;
#86 =( LENGTH_UNIT ( ) NAMED_UNIT ( * ) SI_UNIT ( .MILLI., .METRE. ) );
#87 = ADVANCED_FACE ( 'NONE', ( #189 ), #151, .T. ) ;
#88 = EDGE_CURVE ( 'NONE', #168, #139, #237, .T. ) ;
#89 = ORIENTED_EDGE ( 'NONE', *, *, #223, .T. ) ;
#90 = ADVANCED_FACE ( 'NONE', ( #297 ), #285, .F. ) ;
#91 = ORIENTED_EDGE ( 'NONE', *, *, #141, .T. ) ;
#92 = ORIENTED_EDGE ( 'NONE', *, *, #125, .F. ) ;
#93 = VERTEX_POINT ( 'NONE', #95 ) ;
#94 = PRODUCT_DEFINITION_FORMATION_WITH_SPECIFIED_SOURCE ( 'ANY', '', #15, .NOT_KNOWN. ) ;
#95 = CARTESIAN_POINT ( 'NONE',  ( 486.0000000000000000, 2.000000000000001332, 0.0000000000000000000 ) ) ;
#96 = LINE ( 'NONE', #97, #5 ) ;
#97 = CARTESIAN_POINT ( 'NONE',  ( -6.000000000000000000, 0.7500000000000013323, -22.00000000000000000 ) ) ;
#98 = EDGE_CURVE ( 'NONE', #93, #168, #167, .T. ) ;
#99 = DIRECTION ( 'NONE',  ( -1.000000000000000000, -0.0000000000000000000, -0.0000000000000000000 ) ) ;
#100 = DIRECTION ( 'NONE',  ( -0.0000000000000000000, -0.0000000000000000000, -1.000000000000000000 ) ) ;
#101 = AXIS2_PLACEMENT_3D ( 'NONE', #3, #51, #32 ) ;
#102 = VERTEX_POINT ( 'NONE', #332 ) ;
#103 = PLANE ( 'NONE',  #250 ) ;
#104 = PLANE ( 'NONE',  #79 ) ;
#105 = CARTESIAN_POINT ( 'NONE',  ( 486.0000000000000000, 0.0000000000000000000, 0.0000000000000000000 ) ) ;
#106 = SHAPE_DEFINITION_REPRESENTATION ( #124, #255 ) ;
#107 = VECTOR ( 'NONE', #296, 1000.000000000000000 ) ;
#108 = EDGE_CURVE ( 'NONE', #323, #76, #232, .T. ) ;
#109 = FACE_OUTER_BOUND ( 'NONE', #257, .T. ) ;
#110 = CARTESIAN_POINT ( 'NONE',  ( 486.0000000000000000, 2.000000000000001332, -10.00000000000000000 ) ) ;
#111 = CARTESIAN_POINT ( 'NONE',  ( -6.000000000000000000, -1.999999999999998668, -10.00000000000000000 ) ) ;
#112 = LINE ( 'NONE', #71, #266 ) ;
#113 = CARTESIAN_POINT ( 'NONE',  ( 486.0000000000000000, 2.000000000000001332, -10.00000000000000000 ) ) ;
#114 = ORIENTED_EDGE ( 'NONE', *, *, #11, .F. ) ;
#115 = CARTESIAN_POINT ( 'NONE',  ( 486.0000000000000000, -0.7499999999999986677, -10.00000000000000000 ) ) ;
#116 = CARTESIAN_POINT ( 'NONE',  ( 486.0000000000000000, 0.7500000000000013323, -22.00000000000000000 ) ) ;
#117 = EDGE_CURVE ( 'NONE', #73, #218, #112, .T. ) ;
#118 = ADVANCED_FACE ( 'NONE', ( #109 ), #104, .F. ) ;
#119 = LINE ( 'NONE', #306, #19 ) ;
#120 = ORIENTED_EDGE ( 'NONE', *, *, #18, .F. ) ;
#121 = ORIENTED_EDGE ( 'NONE', *, *, #301, .T. ) ;
#122 = LINE ( 'NONE', #31, #247 ) ;
#123 = CARTESIAN_POINT ( 'NONE',  ( -6.000000000000000000, -0.7499999999999986677, -10.00000000000000000 ) ) ;
#124 = PRODUCT_DEFINITION_SHAPE ( 'NONE', 'NONE',  #33 ) ;
#125 = EDGE_CURVE ( 'NONE', #323, #25, #122, .T. ) ;
#126 = LINE ( 'NONE', #113, #284 ) ;
#127 = DIRECTION ( 'NONE',  ( 1.000000000000000000, 0.0000000000000000000, -0.0000000000000000000 ) ) ;
#128 = VERTEX_POINT ( 'NONE', #215 ) ;
#129 = DIRECTION ( 'NONE',  ( -1.000000000000000000, 0.0000000000000000000, 0.0000000000000000000 ) ) ;
#130 = DIRECTION ( 'NONE',  ( -1.000000000000000000, 0.0000000000000000000, 0.0000000000000000000 ) ) ;
#131 =( GEOMETRIC_REPRESENTATION_CONTEXT ( 3 ) GLOBAL_UNCERTAINTY_ASSIGNED_CONTEXT ( ( #154 ) ) GLOBAL_UNIT_ASSIGNED_CONTEXT ( ( #81, #299, #40 ) ) REPRESENTATION_CONTEXT ( 'NONE', 'WORKASPACE' ) );
#132 = VECTOR ( 'NONE', #134, 1000.000000000000000 ) ;
#133 = CARTESIAN_POINT ( 'NONE',  ( -6.000000000000000000, 0.7500000000000013323, -22.00000000000000000 ) ) ;
#134 = DIRECTION ( 'NONE',  ( -0.0000000000000000000, 1.000000000000000000, -0.0000000000000000000 ) ) ;
#135 = PLANE ( 'NONE',  #325 ) ;
#136 = SURFACE_SIDE_STYLE ('',( #279 ) ) ;
#137 = LINE ( 'NONE', #210, #251 ) ;
#138 = LINE ( 'NONE', #45, #53 ) ;
#139 = VERTEX_POINT ( 'NONE', #314 ) ;
#140 =( NAMED_UNIT ( * ) PLANE_ANGLE_UNIT ( ) SI_UNIT ( $, .RADIAN. ) );
#141 = EDGE_CURVE ( 'NONE', #258, #243, #68, .T. ) ;
#142 = DIRECTION ( 'NONE',  ( -1.000000000000000000, -0.0000000000000000000, -0.0000000000000000000 ) ) ;
#143 = FILL_AREA_STYLE ('',( #220 ) ) ;
#144 = ORIENTED_EDGE ( 'NONE', *, *, #141, .F. ) ;
#145 = ADVANCED_FACE ( 'NONE', ( #308 ), #1, .F. ) ;
#146 = LINE ( 'NONE', #273, #184 ) ;
#147 = ORIENTED_EDGE ( 'NONE', *, *, #161, .T. ) ;
#148 = FACE_OUTER_BOUND ( 'NONE', #185, .T. ) ;
#149 = COLOUR_RGB ( '',0.7921568627450980005, 0.8196078431372548767, 0.9333333333333333481 ) ;
#150 = ORIENTED_EDGE ( 'NONE', *, *, #65, .T. ) ;
#151 = PLANE ( 'NONE',  #82 ) ;
#152 = DIRECTION ( 'NONE',  ( -0.0000000000000000000, 1.000000000000000000, -0.0000000000000000000 ) ) ;
#153 = LINE ( 'NONE', #180, #107 ) ;
#154 = UNCERTAINTY_MEASURE_WITH_UNIT (LENGTH_MEASURE( 1.000000000000000082E-05 ), #81, 'distance_accuracy_value', 'NONE');
#155 = EDGE_LOOP ( 'NONE', ( #89, #175, #324, #302 ) ) ;
#156 = ORIENTED_EDGE ( 'NONE', *, *, #159, .F. ) ;
#157 = CARTESIAN_POINT ( 'NONE',  ( 486.0000000000000000, 2.000000000000001332, -10.00000000000000000 ) ) ;
#158 = CARTESIAN_POINT ( 'NONE',  ( -6.000000000000000000, 2.000000000000001332, -10.00000000000000000 ) ) ;
#159 = EDGE_CURVE ( 'NONE', #168, #258, #153, .T. ) ;
#160 = VERTEX_POINT ( 'NONE', #334 ) ;
#161 = EDGE_CURVE ( 'NONE', #160, #128, #137, .T. ) ;
#162 = DIRECTION ( 'NONE',  ( 0.0000000000000000000, 1.000000000000000000, 0.0000000000000000000 ) ) ;
#163 = VERTEX_POINT ( 'NONE', #186 ) ;
#164 = CARTESIAN_POINT ( 'NONE',  ( 486.0000000000000000, 2.000000000000001332, -10.00000000000000000 ) ) ;
#165 = DIRECTION ( 'NONE',  ( 0.0000000000000000000, -0.0000000000000000000, 1.000000000000000000 ) ) ;
#166 = PLANE ( 'NONE',  #63 ) ;
#167 = LINE ( 'NONE', #66, #48 ) ;
#168 = VERTEX_POINT ( 'NONE', #212 ) ;
#169 =( NAMED_UNIT ( * ) SI_UNIT ( $, .STERADIAN. ) SOLID_ANGLE_UNIT ( ) );
#170 = CARTESIAN_POINT ( 'NONE',  ( 486.0000000000000000, 2.000000000000001332, -10.00000000000000000 ) ) ;
#171 = FACE_OUTER_BOUND ( 'NONE', #238, .T. ) ;
#172 = EDGE_LOOP ( 'NONE', ( #91, #311, #85, #60 ) ) ;
#173 = ORIENTED_EDGE ( 'NONE', *, *, #182, .T. ) ;
#174 = AXIS2_PLACEMENT_3D ( 'NONE', #77, #183, #333 ) ;
#175 = ORIENTED_EDGE ( 'NONE', *, *, #117, .T. ) ;
#176 = VECTOR ( 'NONE', #99, 1000.000000000000000 ) ;
#177 = AXIS2_PLACEMENT_3D ( 'NONE', #230, #70, #127 ) ;
#178 = ORIENTED_EDGE ( 'NONE', *, *, #98, .F. ) ;
#179 = CLOSED_SHELL ( 'NONE', ( #16, #224, #145, #253, #90, #322, #282, #195, #118, #87 ) ) ;
#180 = CARTESIAN_POINT ( 'NONE',  ( 486.0000000000000000, -1.999999999999998668, -10.00000000000000000 ) ) ;
#181 = CARTESIAN_POINT ( 'NONE',  ( 486.0000000000000000, -1.999999999999998668, -10.00000000000000000 ) ) ;
#182 = EDGE_CURVE ( 'NONE', #252, #102, #307, .T. ) ;
#183 = DIRECTION ( 'NONE',  ( -0.0000000000000000000, 0.0000000000000000000, 1.000000000000000000 ) ) ;
#184 = VECTOR ( 'NONE', #270, 1000.000000000000000 ) ;
#185 = EDGE_LOOP ( 'NONE', ( #303, #150, #304, #178 ) ) ;
#186 = CARTESIAN_POINT ( 'NONE',  ( -6.000000000000000000, 0.7500000000000013323, -10.00000000000000000 ) ) ;
#187 = CARTESIAN_POINT ( 'NONE',  ( -6.000000000000000000, 2.000000000000001332, -10.00000000000000000 ) ) ;
#188 = DIRECTION ( 'NONE',  ( 0.0000000000000000000, -0.0000000000000000000, 1.000000000000000000 ) ) ;
#189 = FACE_OUTER_BOUND ( 'NONE', #201, .T. ) ;
#190 = EDGE_LOOP ( 'NONE', ( #271, #21, #39, #92 ) ) ;
#191 = DIRECTION ( 'NONE',  ( 0.0000000000000000000, 0.0000000000000000000, 1.000000000000000000 ) ) ;
#192 = APPLICATION_PROTOCOL_DEFINITION ( 'draft international standard', 'automotive_design', 1998, #317 ) ;
#193 = CARTESIAN_POINT ( 'NONE',  ( -6.000000000000000000, 2.000000000000001332, -10.00000000000000000 ) ) ;
#194 = ORIENTED_EDGE ( 'NONE', *, *, #55, .T. ) ;
#195 = ADVANCED_FACE ( 'NONE', ( #43 ), #295, .F. ) ;
#196 = SURFACE_STYLE_FILL_AREA ( #312 ) ;
#197 = ORIENTED_EDGE ( 'NONE', *, *, #55, .F. ) ;
#198 = ORIENTED_EDGE ( 'NONE', *, *, #200, .T. ) ;
#199 = FACE_OUTER_BOUND ( 'NONE', #12, .T. ) ;
#200 = EDGE_CURVE ( 'NONE', #258, #323, #41, .T. ) ;
#201 = EDGE_LOOP ( 'NONE', ( #329, #69, #114, #197, #209, #120, #330, #269 ) ) ;
#202 = CARTESIAN_POINT ( 'NONE',  ( 486.0000000000000000, 2.000000000000001332, 0.0000000000000000000 ) ) ;
#203 = LINE ( 'NONE', #328, #326 ) ;
#204 = ORIENTED_EDGE ( 'NONE', *, *, #88, .T. ) ;
#205 = DIRECTION ( 'NONE',  ( 0.0000000000000000000, 0.0000000000000000000, -1.000000000000000000 ) ) ;
#206 = EDGE_CURVE ( 'NONE', #128, #59, #265, .T. ) ;
#207 = SURFACE_STYLE_USAGE ( .BOTH. , #240 ) ;
#208 = VECTOR ( 'NONE', #245, 1000.000000000000000 ) ;
#209 = ORIENTED_EDGE ( 'NONE', *, *, #117, .F. ) ;
#210 = CARTESIAN_POINT ( 'NONE',  ( 486.0000000000000000, 0.7500000000000013323, -22.00000000000000000 ) ) ;
#211 = FILL_AREA_STYLE_COLOUR ( '', #268 ) ;
#212 = CARTESIAN_POINT ( 'NONE',  ( 486.0000000000000000, -1.999999999999998668, 0.0000000000000000000 ) ) ;
#213 = PRESENTATION_LAYER_ASSIGNMENT (  '', '', ( #2 ) ) ;
#214 = MANIFOLD_SOLID_BREP ( 'Aufsatz-Linear austragen1', #179 ) ;
#215 = CARTESIAN_POINT ( 'NONE',  ( 486.0000000000000000, 0.7500000000000013323, -10.00000000000000000 ) ) ;
#216 = VECTOR ( 'NONE', #142, 1000.000000000000000 ) ;
#217 = ORIENTED_EDGE ( 'NONE', *, *, #254, .T. ) ;
#218 = VERTEX_POINT ( 'NONE', #133 ) ;
#219 = CARTESIAN_POINT ( 'NONE',  ( 486.0000000000000000, -1.999999999999998668, -10.00000000000000000 ) ) ;
#220 = FILL_AREA_STYLE_COLOUR ( '', #149 ) ;
#221 = DIRECTION ( 'NONE',  ( 1.000000000000000000, 0.0000000000000000000, 0.0000000000000000000 ) ) ;
#222 = VECTOR ( 'NONE', #61, 1000.000000000000000 ) ;
#223 = EDGE_CURVE ( 'NONE', #25, #73, #276, .T. ) ;
#224 = ADVANCED_FACE ( 'NONE', ( #171 ), #135, .F. ) ;
#225 = ORIENTED_EDGE ( 'NONE', *, *, #125, .T. ) ;
#226 = EDGE_CURVE ( 'NONE', #93, #102, #292, .T. ) ;
#227 = PRESENTATION_STYLE_ASSIGNMENT (( #207 ) ) ;
#228 = ORIENTED_EDGE ( 'NONE', *, *, #46, .F. ) ;
#229 = PRODUCT_DEFINITION_CONTEXT ( 'detailed design', #317, 'design' ) ;
#230 = CARTESIAN_POINT ( 'NONE',  ( 486.0000000000000000, -0.7499999999999986677, -22.00000000000000000 ) ) ;
#231 = PRESENTATION_STYLE_ASSIGNMENT (( #38 ) ) ;
#232 = LINE ( 'NONE', #263, #256 ) ;
#233 = EDGE_LOOP ( 'NONE', ( #121, #173, #7, #281 ) ) ;
#234 = DIRECTION ( 'NONE',  ( -1.000000000000000000, -0.0000000000000000000, -0.0000000000000000000 ) ) ;
#235 = DIRECTION ( 'NONE',  ( 0.0000000000000000000, -1.000000000000000000, 0.0000000000000000000 ) ) ;
#236 = DIRECTION ( 'NONE',  ( 0.0000000000000000000, 0.0000000000000000000, 1.000000000000000000 ) ) ;
#237 = LINE ( 'NONE', #259, #176 ) ;
#238 = EDGE_LOOP ( 'NONE', ( #204, #44, #144, #156 ) ) ;
#239 =( NAMED_UNIT ( * ) SI_UNIT ( $, .STERADIAN. ) SOLID_ANGLE_UNIT ( ) );
#240 = SURFACE_SIDE_STYLE ('',( #196 ) ) ;
#241 = EDGE_CURVE ( 'NONE', #160, #218, #146, .T. ) ;
#242 = LINE ( 'NONE', #170, #20 ) ;
#243 = VERTEX_POINT ( 'NONE', #111 ) ;
#244 = DIRECTION ( 'NONE',  ( -1.000000000000000000, -0.0000000000000000000, -0.0000000000000000000 ) ) ;
#245 = DIRECTION ( 'NONE',  ( -0.0000000000000000000, 1.000000000000000000, -0.0000000000000000000 ) ) ;
#246 = DIRECTION ( 'NONE',  ( -0.0000000000000000000, 0.0000000000000000000, 1.000000000000000000 ) ) ;
#247 = VECTOR ( 'NONE', #75, 1000.000000000000000 ) ;
#248 = EDGE_LOOP ( 'NONE', ( #289, #194, #228, #78 ) ) ;
#249 = CARTESIAN_POINT ( 'NONE',  ( 0.0000000000000000000, 0.0000000000000000000, 0.0000000000000000000 ) ) ;
#250 = AXIS2_PLACEMENT_3D ( 'NONE', #202, #47, #331 ) ;
#251 = VECTOR ( 'NONE', #52, 1000.000000000000000 ) ;
#252 = VERTEX_POINT ( 'NONE', #193 ) ;
#253 = ADVANCED_FACE ( 'NONE', ( #23 ), #166, .F. ) ;
#254 = EDGE_CURVE ( 'NONE', #59, #93, #242, .T. ) ;
#255 = ADVANCED_BREP_SHAPE_REPRESENTATION ( '191815', ( #214, #316 ), #72 ) ;
#256 = VECTOR ( 'NONE', #294, 1000.000000000000000 ) ;
#257 = EDGE_LOOP ( 'NONE', ( #280, #29, #198, #225, #298, #147, #64, #217 ) ) ;
#258 = VERTEX_POINT ( 'NONE', #219 ) ;
#259 = CARTESIAN_POINT ( 'NONE',  ( 486.0000000000000000, -1.999999999999998668, 0.0000000000000000000 ) ) ;
#260 = DIRECTION ( 'NONE',  ( 0.0000000000000000000, -1.000000000000000000, 0.0000000000000000000 ) ) ;
#261 = VECTOR ( 'NONE', #205, 1000.000000000000000 ) ;
#262 = STYLED_ITEM ( 'NONE', ( #227 ), #214 ) ;
#263 = CARTESIAN_POINT ( 'NONE',  ( 486.0000000000000000, -0.7499999999999986677, -10.00000000000000000 ) ) ;
#264 =( NAMED_UNIT ( * ) PLANE_ANGLE_UNIT ( ) SI_UNIT ( $, .RADIAN. ) );
#265 = LINE ( 'NONE', #110, #208 ) ;
#266 = VECTOR ( 'NONE', #291, 1000.000000000000000 ) ;
#267 = CARTESIAN_POINT ( 'NONE',  ( 486.0000000000000000, -0.7499999999999986677, -22.00000000000000000 ) ) ;
#268 = COLOUR_RGB ( '',0.7921568627450980005, 0.8196078431372548767, 0.9333333333333333481 ) ;
#269 = ORIENTED_EDGE ( 'NONE', *, *, #36, .F. ) ;
#270 = DIRECTION ( 'NONE',  ( -1.000000000000000000, -0.0000000000000000000, -0.0000000000000000000 ) ) ;
#271 = ORIENTED_EDGE ( 'NONE', *, *, #108, .T. ) ;
#272 = CARTESIAN_POINT ( 'NONE',  ( 486.0000000000000000, 2.000000000000001332, 0.0000000000000000000 ) ) ;
#273 = CARTESIAN_POINT ( 'NONE',  ( 486.0000000000000000, 0.7500000000000013323, -22.00000000000000000 ) ) ;
#274 = PRODUCT_RELATED_PRODUCT_CATEGORY ( 'part', '', ( #15 ) ) ;
#275 = PLANE ( 'NONE',  #42 ) ;
#276 = LINE ( 'NONE', #54, #17 ) ;
#277 = ORIENTED_EDGE ( 'NONE', *, *, #46, .T. ) ;
#278 = EDGE_CURVE ( 'NONE', #25, #160, #67, .T. ) ;
#279 = SURFACE_STYLE_FILL_AREA ( #143 ) ;
#280 = ORIENTED_EDGE ( 'NONE', *, *, #98, .T. ) ;
#281 = ORIENTED_EDGE ( 'NONE', *, *, #254, .F. ) ;
#282 = ADVANCED_FACE ( 'NONE', ( #199 ), #275, .F. ) ;
#283 = MECHANICAL_DESIGN_GEOMETRIC_PRESENTATION_REPRESENTATION (  '', ( #262 ), #320 ) ;
#284 = VECTOR ( 'NONE', #8, 1000.000000000000000 ) ;
#285 = PLANE ( 'NONE',  #177 ) ;
#286 = MECHANICAL_DESIGN_GEOMETRIC_PRESENTATION_REPRESENTATION (  '', ( #2 ), #131 ) ;
#287 = FACE_OUTER_BOUND ( 'NONE', #248, .T. ) ;
#288 = DIRECTION ( 'NONE',  ( 0.0000000000000000000, 0.0000000000000000000, 1.000000000000000000 ) ) ;
#289 = ORIENTED_EDGE ( 'NONE', *, *, #241, .T. ) ;
#290 = CARTESIAN_POINT ( 'NONE',  ( -6.000000000000000000, -0.7499999999999986677, -22.00000000000000000 ) ) ;
#291 = DIRECTION ( 'NONE',  ( 0.0000000000000000000, 1.000000000000000000, 0.0000000000000000000 ) ) ;
#292 = LINE ( 'NONE', #272, #216 ) ;
#293 = ORIENTED_EDGE ( 'NONE', *, *, #206, .F. ) ;
#294 = DIRECTION ( 'NONE',  ( -1.000000000000000000, -0.0000000000000000000, -0.0000000000000000000 ) ) ;
#295 = PLANE ( 'NONE',  #101 ) ;
#296 = DIRECTION ( 'NONE',  ( -0.0000000000000000000, -0.0000000000000000000, -1.000000000000000000 ) ) ;
#297 = FACE_OUTER_BOUND ( 'NONE', #155, .T. ) ;
#298 = ORIENTED_EDGE ( 'NONE', *, *, #278, .T. ) ;
#299 =( NAMED_UNIT ( * ) PLANE_ANGLE_UNIT ( ) SI_UNIT ( $, .RADIAN. ) );
#300 = VECTOR ( 'NONE', #58, 1000.000000000000000 ) ;
#301 = EDGE_CURVE ( 'NONE', #59, #252, #126, .T. ) ;
#302 = ORIENTED_EDGE ( 'NONE', *, *, #278, .F. ) ;
#303 = ORIENTED_EDGE ( 'NONE', *, *, #226, .T. ) ;
#304 = ORIENTED_EDGE ( 'NONE', *, *, #88, .F. ) ;
#305 = PRESENTATION_LAYER_ASSIGNMENT (  '', '', ( #262 ) ) ;
#306 = CARTESIAN_POINT ( 'NONE',  ( -6.000000000000000000, -1.999999999999998668, -10.00000000000000000 ) ) ;
#307 = LINE ( 'NONE', #187, #84 ) ;
#308 = FACE_OUTER_BOUND ( 'NONE', #172, .T. ) ;
#309 = CARTESIAN_POINT ( 'NONE',  ( 486.0000000000000000, 0.7500000000000013323, -10.00000000000000000 ) ) ;
#310 = ORIENTED_EDGE ( 'NONE', *, *, #301, .F. ) ;
#311 = ORIENTED_EDGE ( 'NONE', *, *, #49, .T. ) ;
#312 = FILL_AREA_STYLE ('',( #211 ) ) ;
#313 = VECTOR ( 'NONE', #234, 1000.000000000000000 ) ;
#314 = CARTESIAN_POINT ( 'NONE',  ( -6.000000000000000000, -1.999999999999998668, 0.0000000000000000000 ) ) ;
#315 = CARTESIAN_POINT ( 'NONE',  ( 486.0000000000000000, -1.999999999999998668, -10.00000000000000000 ) ) ;
#316 = AXIS2_PLACEMENT_3D ( 'NONE', #249, #191, #221 ) ;
#317 = APPLICATION_CONTEXT ( 'automotive_design' ) ;
#318 = DIRECTION ( 'NONE',  ( 0.0000000000000000000, -1.000000000000000000, 0.0000000000000000000 ) ) ;
#319 = ORIENTED_EDGE ( 'NONE', *, *, #11, .T. ) ;
#320 =( GEOMETRIC_REPRESENTATION_CONTEXT ( 3 ) GLOBAL_UNCERTAINTY_ASSIGNED_CONTEXT ( ( #13 ) ) GLOBAL_UNIT_ASSIGNED_CONTEXT ( ( #74, #264, #239 ) ) REPRESENTATION_CONTEXT ( 'NONE', 'WORKASPACE' ) );
#321 = LINE ( 'NONE', #123, #261 ) ;
#322 = ADVANCED_FACE ( 'NONE', ( #287 ), #62, .F. ) ;
#323 = VERTEX_POINT ( 'NONE', #9 ) ;
#324 = ORIENTED_EDGE ( 'NONE', *, *, #241, .F. ) ;
#325 = AXIS2_PLACEMENT_3D ( 'NONE', #315, #162, #188 ) ;
#326 = VECTOR ( 'NONE', #152, 1000.000000000000000 ) ;
#327 = CARTESIAN_POINT ( 'NONE',  ( -6.000000000000000000, -0.7499999999999986677, -10.00000000000000000 ) ) ;
#328 = CARTESIAN_POINT ( 'NONE',  ( -6.000000000000000000, -0.7499999999999986677, -10.00000000000000000 ) ) ;
#329 = ORIENTED_EDGE ( 'NONE', *, *, #65, .F. ) ;
#330 = ORIENTED_EDGE ( 'NONE', *, *, #49, .F. ) ;
#331 = DIRECTION ( 'NONE',  ( -1.000000000000000000, 0.0000000000000000000, -0.0000000000000000000 ) ) ;
#332 = CARTESIAN_POINT ( 'NONE',  ( -6.000000000000000000, 2.000000000000001332, 0.0000000000000000000 ) ) ;
#333 = DIRECTION ( 'NONE',  ( 1.000000000000000000, 0.0000000000000000000, 0.0000000000000000000 ) ) ;
#334 = CARTESIAN_POINT ( 'NONE',  ( 486.0000000000000000, 0.7500000000000013323, -22.00000000000000000 ) ) ;
ENDSEC;
END-ISO-10303-21;
