ISO-10303-21;
HEADER;
FILE_DESCRIPTION (( 'STEP AP214' ),
    '1' );
FILE_NAME ('191807.STEP',
    '2020-02-13T11:20:08',
    ( '' ),
    ( '' ),
    'SwSTEP 2.0',
    'SolidWorks 2018',
    '' );
FILE_SCHEMA (( 'AUTOMOTIVE_DESIGN' ));
ENDSEC;

DATA;
#1 = CARTESIAN_POINT ( 'NONE',  ( -6.000000000000000000, -0.7499999999999986677, -10.00000000000000000 ) ) ;
#2 = CARTESIAN_POINT ( 'NONE',  ( 474.0000000000000000, -0.7499999999999986677, -10.00000000000000000 ) ) ;
#3 = ORIENTED_EDGE ( 'NONE', *, *, #271, .F. ) ;
#4 = MECHANICAL_DESIGN_GEOMETRIC_PRESENTATION_REPRESENTATION (  '', ( #177 ), #52 ) ;
#5 = PRESENTATION_STYLE_ASSIGNMENT (( #188 ) ) ;
#6 = VECTOR ( 'NONE', #116, 1000.000000000000000 ) ;
#7 =( LENGTH_UNIT ( ) NAMED_UNIT ( * ) SI_UNIT ( .MILLI., .METRE. ) );
#8 = ORIENTED_EDGE ( 'NONE', *, *, #131, .F. ) ;
#9 = EDGE_CURVE ( 'NONE', #261, #227, #228, .T. ) ;
#10 = APPLICATION_PROTOCOL_DEFINITION ( 'draft international standard', 'automotive_design', 1998, #287 ) ;
#11 = EDGE_CURVE ( 'NONE', #251, #261, #272, .T. ) ;
#12 = ORIENTED_EDGE ( 'NONE', *, *, #218, .F. ) ;
#13 = CARTESIAN_POINT ( 'NONE',  ( 474.0000000000000000, 2.000000000000001332, 0.0000000000000000000 ) ) ;
#14 = SURFACE_STYLE_FILL_AREA ( #145 ) ;
#15 = ORIENTED_EDGE ( 'NONE', *, *, #75, .T. ) ;
#16 = CARTESIAN_POINT ( 'NONE',  ( -6.000000000000000000, 0.7500000000000013323, -22.00000000000000000 ) ) ;
#17 = LINE ( 'NONE', #25, #291 ) ;
#18 = SHAPE_DEFINITION_REPRESENTATION ( #302, #97 ) ;
#19 = VECTOR ( 'NONE', #208, 1000.000000000000000 ) ;
#20 = DIRECTION ( 'NONE',  ( 0.0000000000000000000, -1.000000000000000000, 0.0000000000000000000 ) ) ;
#21 = EDGE_CURVE ( 'NONE', #63, #203, #206, .T. ) ;
#22 = VECTOR ( 'NONE', #164, 1000.000000000000000 ) ;
#23 = CARTESIAN_POINT ( 'NONE',  ( 474.0000000000000000, -0.7499999999999986677, -22.00000000000000000 ) ) ;
#24 = VERTEX_POINT ( 'NONE', #88 ) ;
#25 = CARTESIAN_POINT ( 'NONE',  ( 474.0000000000000000, 2.000000000000001332, 0.0000000000000000000 ) ) ;
#26 = CARTESIAN_POINT ( 'NONE',  ( 474.0000000000000000, 2.000000000000001332, -10.00000000000000000 ) ) ;
#27 = ORIENTED_EDGE ( 'NONE', *, *, #111, .T. ) ;
#28 = EDGE_CURVE ( 'NONE', #227, #43, #176, .T. ) ;
#29 = UNCERTAINTY_MEASURE_WITH_UNIT (LENGTH_MEASURE( 1.000000000000000082E-05 ), #169, 'distance_accuracy_value', 'NONE');
#30 = VECTOR ( 'NONE', #20, 1000.000000000000000 ) ;
#31 = ORIENTED_EDGE ( 'NONE', *, *, #150, .T. ) ;
#32 = DIRECTION ( 'NONE',  ( -0.0000000000000000000, 1.000000000000000000, -0.0000000000000000000 ) ) ;
#33 = CARTESIAN_POINT ( 'NONE',  ( 474.0000000000000000, -0.7499999999999986677, -22.00000000000000000 ) ) ;
#34 = PLANE ( 'NONE',  #70 ) ;
#35 = FACE_OUTER_BOUND ( 'NONE', #292, .T. ) ;
#36 = VECTOR ( 'NONE', #89, 1000.000000000000000 ) ;
#37 = ORIENTED_EDGE ( 'NONE', *, *, #233, .T. ) ;
#38 = EDGE_CURVE ( 'NONE', #203, #251, #123, .T. ) ;
#39 = CARTESIAN_POINT ( 'NONE',  ( 474.0000000000000000, -1.999999999999998668, -10.00000000000000000 ) ) ;
#40 = CARTESIAN_POINT ( 'NONE',  ( -6.000000000000000000, 0.7500000000000013323, -10.00000000000000000 ) ) ;
#41 = EDGE_CURVE ( 'NONE', #265, #315, #114, .T. ) ;
#42 = PRESENTATION_STYLE_ASSIGNMENT (( #323 ) ) ;
#43 = VERTEX_POINT ( 'NONE', #40 ) ;
#44 = VECTOR ( 'NONE', #172, 1000.000000000000000 ) ;
#45 = ORIENTED_EDGE ( 'NONE', *, *, #166, .T. ) ;
#46 = ADVANCED_FACE ( 'NONE', ( #185 ), #201, .F. ) ;
#47 = EDGE_CURVE ( 'NONE', #250, #227, #197, .T. ) ;
#48 = LINE ( 'NONE', #39, #285 ) ;
#49 = ORIENTED_EDGE ( 'NONE', *, *, #75, .F. ) ;
#50 = ORIENTED_EDGE ( 'NONE', *, *, #47, .T. ) ;
#51 = CARTESIAN_POINT ( 'NONE',  ( 474.0000000000000000, -0.7499999999999986677, -10.00000000000000000 ) ) ;
#52 =( GEOMETRIC_REPRESENTATION_CONTEXT ( 3 ) GLOBAL_UNCERTAINTY_ASSIGNED_CONTEXT ( ( #316 ) ) GLOBAL_UNIT_ASSIGNED_CONTEXT ( ( #139, #317, #195 ) ) REPRESENTATION_CONTEXT ( 'NONE', 'WORKASPACE' ) );
#53 = DIRECTION ( 'NONE',  ( 1.000000000000000000, 0.0000000000000000000, 0.0000000000000000000 ) ) ;
#54 = CARTESIAN_POINT ( 'NONE',  ( 474.0000000000000000, 2.000000000000001332, -10.00000000000000000 ) ) ;
#55 = CARTESIAN_POINT ( 'NONE',  ( 474.0000000000000000, 0.7500000000000013323, -22.00000000000000000 ) ) ;
#56 = VECTOR ( 'NONE', #220, 1000.000000000000000 ) ;
#57 = ORIENTED_EDGE ( 'NONE', *, *, #41, .T. ) ;
#58 = CARTESIAN_POINT ( 'NONE',  ( -6.000000000000000000, -0.7499999999999986677, -22.00000000000000000 ) ) ;
#59 = APPLICATION_PROTOCOL_DEFINITION ( 'draft international standard', 'automotive_design', 1998, #215 ) ;
#60 = LINE ( 'NONE', #293, #241 ) ;
#61 = VERTEX_POINT ( 'NONE', #270 ) ;
#62 =( NAMED_UNIT ( * ) SI_UNIT ( $, .STERADIAN. ) SOLID_ANGLE_UNIT ( ) );
#63 = VERTEX_POINT ( 'NONE', #117 ) ;
#64 = SURFACE_SIDE_STYLE ('',( #14 ) ) ;
#65 = ORIENTED_EDGE ( 'NONE', *, *, #191, .T. ) ;
#66 = PRODUCT_DEFINITION_FORMATION_WITH_SPECIFIED_SOURCE ( 'ANY', '', #167, .NOT_KNOWN. ) ;
#67 = PLANE ( 'NONE',  #267 ) ;
#68 = DIRECTION ( 'NONE',  ( 0.0000000000000000000, -0.0000000000000000000, 1.000000000000000000 ) ) ;
#69 = ORIENTED_EDGE ( 'NONE', *, *, #150, .F. ) ;
#70 = AXIS2_PLACEMENT_3D ( 'NONE', #143, #325, #90 ) ;
#71 = AXIS2_PLACEMENT_3D ( 'NONE', #26, #81, #214 ) ;
#72 = PRESENTATION_LAYER_ASSIGNMENT (  '', '', ( #121 ) ) ;
#73 = COLOUR_RGB ( '',0.7921568627450980005, 0.8196078431372548767, 0.9333333333333333481 ) ;
#74 = ORIENTED_EDGE ( 'NONE', *, *, #233, .F. ) ;
#75 = EDGE_CURVE ( 'NONE', #237, #61, #300, .T. ) ;
#76 = DIRECTION ( 'NONE',  ( 0.0000000000000000000, -1.000000000000000000, 0.0000000000000000000 ) ) ;
#77 = EDGE_CURVE ( 'NONE', #91, #250, #104, .T. ) ;
#78 = CARTESIAN_POINT ( 'NONE',  ( 474.0000000000000000, -1.999999999999998668, 0.0000000000000000000 ) ) ;
#79 = VECTOR ( 'NONE', #106, 1000.000000000000000 ) ;
#80 = PRODUCT_RELATED_PRODUCT_CATEGORY ( 'part', '', ( #167 ) ) ;
#81 = DIRECTION ( 'NONE',  ( 0.0000000000000000000, -1.000000000000000000, 0.0000000000000000000 ) ) ;
#82 = LINE ( 'NONE', #278, #30 ) ;
#83 = FILL_AREA_STYLE_COLOUR ( '', #73 ) ;
#84 = CARTESIAN_POINT ( 'NONE',  ( -6.000000000000000000, 2.000000000000001332, -10.00000000000000000 ) ) ;
#85 = VECTOR ( 'NONE', #96, 1000.000000000000000 ) ;
#86 = CARTESIAN_POINT ( 'NONE',  ( 474.0000000000000000, -0.7499999999999986677, -10.00000000000000000 ) ) ;
#87 = EDGE_LOOP ( 'NONE', ( #192, #109, #133, #186, #328, #45, #138, #127 ) ) ;
#88 = CARTESIAN_POINT ( 'NONE',  ( -6.000000000000000000, 2.000000000000001332, 0.0000000000000000000 ) ) ;
#89 = DIRECTION ( 'NONE',  ( 0.0000000000000000000, 1.000000000000000000, 0.0000000000000000000 ) ) ;
#90 = DIRECTION ( 'NONE',  ( -1.000000000000000000, 0.0000000000000000000, -0.0000000000000000000 ) ) ;
#91 = VERTEX_POINT ( 'NONE', #240 ) ;
#92 = AXIS2_PLACEMENT_3D ( 'NONE', #158, #305, #53 ) ;
#93 = LINE ( 'NONE', #112, #326 ) ;
#94 = EDGE_CURVE ( 'NONE', #256, #237, #242, .T. ) ;
#95 = EDGE_LOOP ( 'NONE', ( #31, #37, #297, #322 ) ) ;
#96 = DIRECTION ( 'NONE',  ( -0.0000000000000000000, -0.0000000000000000000, -1.000000000000000000 ) ) ;
#97 = ADVANCED_BREP_SHAPE_REPRESENTATION ( '191807', ( #128, #196 ), #102 ) ;
#98 = ORIENTED_EDGE ( 'NONE', *, *, #319, .F. ) ;
#99 = LINE ( 'NONE', #159, #303 ) ;
#100 = PLANE ( 'NONE',  #125 ) ;
#101 = ORIENTED_EDGE ( 'NONE', *, *, #107, .F. ) ;
#102 =( GEOMETRIC_REPRESENTATION_CONTEXT ( 3 ) GLOBAL_UNCERTAINTY_ASSIGNED_CONTEXT ( ( #184 ) ) GLOBAL_UNIT_ASSIGNED_CONTEXT ( ( #7, #310, #62 ) ) REPRESENTATION_CONTEXT ( 'NONE', 'WORKASPACE' ) );
#103 = CARTESIAN_POINT ( 'NONE',  ( 474.0000000000000000, 0.7500000000000013323, -10.00000000000000000 ) ) ;
#104 = LINE ( 'NONE', #33, #36 ) ;
#105 = CARTESIAN_POINT ( 'NONE',  ( 474.0000000000000000, -0.7499999999999986677, -10.00000000000000000 ) ) ;
#106 = DIRECTION ( 'NONE',  ( -0.0000000000000000000, 1.000000000000000000, -0.0000000000000000000 ) ) ;
#107 = EDGE_CURVE ( 'NONE', #265, #63, #60, .T. ) ;
#108 = DIRECTION ( 'NONE',  ( 1.000000000000000000, 0.0000000000000000000, 0.0000000000000000000 ) ) ;
#109 = ORIENTED_EDGE ( 'NONE', *, *, #107, .T. ) ;
#110 = DIRECTION ( 'NONE',  ( 1.000000000000000000, 0.0000000000000000000, 0.0000000000000000000 ) ) ;
#111 = EDGE_CURVE ( 'NONE', #91, #261, #93, .T. ) ;
#112 = CARTESIAN_POINT ( 'NONE',  ( 474.0000000000000000, -0.7499999999999986677, -22.00000000000000000 ) ) ;
#113 = CARTESIAN_POINT ( 'NONE',  ( 474.0000000000000000, 2.000000000000001332, -10.00000000000000000 ) ) ;
#114 = LINE ( 'NONE', #224, #56 ) ;
#115 = ORIENTED_EDGE ( 'NONE', *, *, #248, .T. ) ;
#116 = DIRECTION ( 'NONE',  ( -1.000000000000000000, -0.0000000000000000000, -0.0000000000000000000 ) ) ;
#117 = CARTESIAN_POINT ( 'NONE',  ( 474.0000000000000000, -1.999999999999998668, -10.00000000000000000 ) ) ;
#118 = FACE_OUTER_BOUND ( 'NONE', #236, .T. ) ;
#119 = ORIENTED_EDGE ( 'NONE', *, *, #191, .F. ) ;
#120 = ADVANCED_FACE ( 'NONE', ( #189 ), #67, .T. ) ;
#121 = STYLED_ITEM ( 'NONE', ( #42 ), #128 ) ;
#122 = ADVANCED_FACE ( 'NONE', ( #118 ), #34, .F. ) ;
#123 = LINE ( 'NONE', #245, #249 ) ;
#124 = ORIENTED_EDGE ( 'NONE', *, *, #166, .F. ) ;
#125 = AXIS2_PLACEMENT_3D ( 'NONE', #280, #234, #213 ) ;
#126 = LINE ( 'NONE', #229, #22 ) ;
#127 = ORIENTED_EDGE ( 'NONE', *, *, #271, .T. ) ;
#128 = MANIFOLD_SOLID_BREP ( 'Aufsatz-Linear austragen1', #301 ) ;
#129 = EDGE_LOOP ( 'NONE', ( #57, #273, #69, #101 ) ) ;
#130 = DIRECTION ( 'NONE',  ( 0.0000000000000000000, -0.0000000000000000000, 1.000000000000000000 ) ) ;
#131 = EDGE_CURVE ( 'NONE', #256, #43, #170, .T. ) ;
#132 = CARTESIAN_POINT ( 'NONE',  ( 474.0000000000000000, 2.000000000000001332, -10.00000000000000000 ) ) ;
#133 = ORIENTED_EDGE ( 'NONE', *, *, #21, .T. ) ;
#134 = ORIENTED_EDGE ( 'NONE', *, *, #111, .F. ) ;
#135 = AXIS2_PLACEMENT_3D ( 'NONE', #55, #182, #235 ) ;
#136 = CARTESIAN_POINT ( 'NONE',  ( 474.0000000000000000, 2.000000000000001332, -10.00000000000000000 ) ) ;
#137 = FACE_OUTER_BOUND ( 'NONE', #179, .T. ) ;
#138 = ORIENTED_EDGE ( 'NONE', *, *, #94, .T. ) ;
#139 =( LENGTH_UNIT ( ) NAMED_UNIT ( * ) SI_UNIT ( .MILLI., .METRE. ) );
#140 = CARTESIAN_POINT ( 'NONE',  ( -6.000000000000000000, -0.7499999999999986677, -22.00000000000000000 ) ) ;
#141 = MECHANICAL_DESIGN_GEOMETRIC_PRESENTATION_REPRESENTATION (  '', ( #121 ), #153 ) ;
#142 = DIRECTION ( 'NONE',  ( 0.0000000000000000000, 1.000000000000000000, 0.0000000000000000000 ) ) ;
#143 = CARTESIAN_POINT ( 'NONE',  ( 474.0000000000000000, 2.000000000000001332, 0.0000000000000000000 ) ) ;
#144 = DIRECTION ( 'NONE',  ( -1.000000000000000000, -0.0000000000000000000, -0.0000000000000000000 ) ) ;
#145 = FILL_AREA_STYLE ('',( #219 ) ) ;
#146 = AXIS2_PLACEMENT_3D ( 'NONE', #136, #239, #110 ) ;
#147 = CARTESIAN_POINT ( 'NONE',  ( -6.000000000000000000, 0.0000000000000000000, 0.0000000000000000000 ) ) ;
#148 = LINE ( 'NONE', #84, #79 ) ;
#149 = DIRECTION ( 'NONE',  ( -1.000000000000000000, 0.0000000000000000000, 0.0000000000000000000 ) ) ;
#150 = EDGE_CURVE ( 'NONE', #63, #308, #48, .T. ) ;
#151 = ADVANCED_FACE ( 'NONE', ( #226 ), #309, .F. ) ;
#152 = EDGE_LOOP ( 'NONE', ( #231, #332, #134, #154 ) ) ;
#153 =( GEOMETRIC_REPRESENTATION_CONTEXT ( 3 ) GLOBAL_UNCERTAINTY_ASSIGNED_CONTEXT ( ( #29 ) ) GLOBAL_UNIT_ASSIGNED_CONTEXT ( ( #169, #324, #288 ) ) REPRESENTATION_CONTEXT ( 'NONE', 'WORKASPACE' ) );
#154 = ORIENTED_EDGE ( 'NONE', *, *, #205, .F. ) ;
#155 = DIRECTION ( 'NONE',  ( 0.0000000000000000000, 0.0000000000000000000, 1.000000000000000000 ) ) ;
#156 = LINE ( 'NONE', #254, #19 ) ;
#157 = AXIS2_PLACEMENT_3D ( 'NONE', #105, #306, #130 ) ;
#158 = CARTESIAN_POINT ( 'NONE',  ( 474.0000000000000000, -0.7499999999999986677, -10.00000000000000000 ) ) ;
#159 = CARTESIAN_POINT ( 'NONE',  ( -6.000000000000000000, 2.000000000000001332, -10.00000000000000000 ) ) ;
#160 = COLOUR_RGB ( '',0.7921568627450980005, 0.8196078431372548767, 0.9333333333333333481 ) ;
#161 = VERTEX_POINT ( 'NONE', #13 ) ;
#162 = FILL_AREA_STYLE ('',( #83 ) ) ;
#163 = LINE ( 'NONE', #132, #279 ) ;
#164 = DIRECTION ( 'NONE',  ( -1.000000000000000000, -0.0000000000000000000, -0.0000000000000000000 ) ) ;
#165 = EDGE_LOOP ( 'NONE', ( #50, #331, #8, #124 ) ) ;
#166 = EDGE_CURVE ( 'NONE', #250, #256, #156, .T. ) ;
#167 = PRODUCT ( '191807', '191807', '', ( #259 ) ) ;
#168 = DIRECTION ( 'NONE',  ( 0.0000000000000000000, 0.0000000000000000000, -1.000000000000000000 ) ) ;
#169 =( LENGTH_UNIT ( ) NAMED_UNIT ( * ) SI_UNIT ( .MILLI., .METRE. ) );
#170 = LINE ( 'NONE', #268, #6 ) ;
#171 = ORIENTED_EDGE ( 'NONE', *, *, #77, .F. ) ;
#172 = DIRECTION ( 'NONE',  ( -1.000000000000000000, -0.0000000000000000000, -0.0000000000000000000 ) ) ;
#173 = DIRECTION ( 'NONE',  ( 0.0000000000000000000, 0.0000000000000000000, 1.000000000000000000 ) ) ;
#174 = AXIS2_PLACEMENT_3D ( 'NONE', #23, #155, #307 ) ;
#175 = VECTOR ( 'NONE', #257, 1000.000000000000000 ) ;
#176 = LINE ( 'NONE', #16, #255 ) ;
#177 = STYLED_ITEM ( 'NONE', ( #5 ), #97 ) ;
#178 = ORIENTED_EDGE ( 'NONE', *, *, #9, .F. ) ;
#179 = EDGE_LOOP ( 'NONE', ( #27, #223, #211, #171 ) ) ;
#180 = DIRECTION ( 'NONE',  ( -0.0000000000000000000, 1.000000000000000000, -0.0000000000000000000 ) ) ;
#181 = EDGE_CURVE ( 'NONE', #315, #308, #284, .T. ) ;
#182 = DIRECTION ( 'NONE',  ( 0.0000000000000000000, -1.000000000000000000, 0.0000000000000000000 ) ) ;
#183 = CARTESIAN_POINT ( 'NONE',  ( -6.000000000000000000, 0.7500000000000013323, -22.00000000000000000 ) ) ;
#184 = UNCERTAINTY_MEASURE_WITH_UNIT (LENGTH_MEASURE( 1.000000000000000082E-05 ), #7, 'distance_accuracy_value', 'NONE');
#185 = FACE_OUTER_BOUND ( 'NONE', #129, .T. ) ;
#186 = ORIENTED_EDGE ( 'NONE', *, *, #205, .T. ) ;
#187 = PLANE ( 'NONE',  #71 ) ;
#188 = SURFACE_STYLE_USAGE ( .BOTH. , #190 ) ;
#189 = FACE_OUTER_BOUND ( 'NONE', #277, .T. ) ;
#190 = SURFACE_SIDE_STYLE ('',( #320 ) ) ;
#191 = EDGE_CURVE ( 'NONE', #61, #24, #99, .T. ) ;
#192 = ORIENTED_EDGE ( 'NONE', *, *, #218, .T. ) ;
#193 = ORIENTED_EDGE ( 'NONE', *, *, #131, .T. ) ;
#194 = CARTESIAN_POINT ( 'NONE',  ( -6.000000000000000000, -1.999999999999998668, -10.00000000000000000 ) ) ;
#195 =( NAMED_UNIT ( * ) SI_UNIT ( $, .STERADIAN. ) SOLID_ANGLE_UNIT ( ) );
#196 = AXIS2_PLACEMENT_3D ( 'NONE', #262, #216, #108 ) ;
#197 = LINE ( 'NONE', #295, #321 ) ;
#198 = ORIENTED_EDGE ( 'NONE', *, *, #11, .F. ) ;
#199 = CARTESIAN_POINT ( 'NONE',  ( 474.0000000000000000, 2.000000000000001332, -10.00000000000000000 ) ) ;
#200 = CARTESIAN_POINT ( 'NONE',  ( -6.000000000000000000, -1.999999999999998668, -10.00000000000000000 ) ) ;
#201 = PLANE ( 'NONE',  #333 ) ;
#202 = FACE_OUTER_BOUND ( 'NONE', #87, .T. ) ;
#203 = VERTEX_POINT ( 'NONE', #2 ) ;
#204 = ORIENTED_EDGE ( 'NONE', *, *, #319, .T. ) ;
#205 = EDGE_CURVE ( 'NONE', #203, #91, #260, .T. ) ;
#206 = LINE ( 'NONE', #86, #330 ) ;
#207 = ORIENTED_EDGE ( 'NONE', *, *, #299, .F. ) ;
#208 = DIRECTION ( 'NONE',  ( 0.0000000000000000000, 0.0000000000000000000, 1.000000000000000000 ) ) ;
#209 = DIRECTION ( 'NONE',  ( 0.0000000000000000000, 0.0000000000000000000, 1.000000000000000000 ) ) ;
#210 = DIRECTION ( 'NONE',  ( 0.0000000000000000000, 0.0000000000000000000, 1.000000000000000000 ) ) ;
#211 = ORIENTED_EDGE ( 'NONE', *, *, #47, .F. ) ;
#212 = ORIENTED_EDGE ( 'NONE', *, *, #28, .F. ) ;
#213 = DIRECTION ( 'NONE',  ( 0.0000000000000000000, 0.0000000000000000000, 1.000000000000000000 ) ) ;
#214 = DIRECTION ( 'NONE',  ( 0.0000000000000000000, -0.0000000000000000000, -1.000000000000000000 ) ) ;
#215 = APPLICATION_CONTEXT ( 'automotive_design' ) ;
#216 = DIRECTION ( 'NONE',  ( 0.0000000000000000000, 0.0000000000000000000, 1.000000000000000000 ) ) ;
#217 = FACE_OUTER_BOUND ( 'NONE', #165, .T. ) ;
#218 = EDGE_CURVE ( 'NONE', #161, #265, #17, .T. ) ;
#219 = FILL_AREA_STYLE_COLOUR ( '', #160 ) ;
#220 = DIRECTION ( 'NONE',  ( -1.000000000000000000, -0.0000000000000000000, -0.0000000000000000000 ) ) ;
#221 = DIRECTION ( 'NONE',  ( -1.000000000000000000, -0.0000000000000000000, -0.0000000000000000000 ) ) ;
#222 = VECTOR ( 'NONE', #269, 1000.000000000000000 ) ;
#223 = ORIENTED_EDGE ( 'NONE', *, *, #9, .T. ) ;
#224 = CARTESIAN_POINT ( 'NONE',  ( 474.0000000000000000, -1.999999999999998668, 0.0000000000000000000 ) ) ;
#225 = ADVANCED_FACE ( 'NONE', ( #276 ), #283, .F. ) ;
#226 = FACE_OUTER_BOUND ( 'NONE', #152, .T. ) ;
#227 = VERTEX_POINT ( 'NONE', #183 ) ;
#228 = LINE ( 'NONE', #140, #281 ) ;
#229 = CARTESIAN_POINT ( 'NONE',  ( 474.0000000000000000, 2.000000000000001332, 0.0000000000000000000 ) ) ;
#230 = LINE ( 'NONE', #1, #296 ) ;
#231 = ORIENTED_EDGE ( 'NONE', *, *, #38, .T. ) ;
#232 = CARTESIAN_POINT ( 'NONE',  ( 474.0000000000000000, 0.7500000000000013323, -22.00000000000000000 ) ) ;
#233 = EDGE_CURVE ( 'NONE', #308, #251, #230, .T. ) ;
#234 = DIRECTION ( 'NONE',  ( -1.000000000000000000, 0.0000000000000000000, 0.0000000000000000000 ) ) ;
#235 = DIRECTION ( 'NONE',  ( 0.0000000000000000000, -0.0000000000000000000, -1.000000000000000000 ) ) ;
#236 = EDGE_LOOP ( 'NONE', ( #204, #115, #246, #12 ) ) ;
#237 = VERTEX_POINT ( 'NONE', #54 ) ;
#238 = PLANE ( 'NONE',  #146 ) ;
#239 = DIRECTION ( 'NONE',  ( -0.0000000000000000000, 0.0000000000000000000, 1.000000000000000000 ) ) ;
#240 = CARTESIAN_POINT ( 'NONE',  ( 474.0000000000000000, -0.7499999999999986677, -22.00000000000000000 ) ) ;
#241 = VECTOR ( 'NONE', #243, 1000.000000000000000 ) ;
#242 = LINE ( 'NONE', #113, #222 ) ;
#243 = DIRECTION ( 'NONE',  ( -0.0000000000000000000, -0.0000000000000000000, -1.000000000000000000 ) ) ;
#244 = DIRECTION ( 'NONE',  ( 0.0000000000000000000, 1.000000000000000000, 0.0000000000000000000 ) ) ;
#245 = CARTESIAN_POINT ( 'NONE',  ( 474.0000000000000000, -0.7499999999999986677, -10.00000000000000000 ) ) ;
#246 = ORIENTED_EDGE ( 'NONE', *, *, #41, .F. ) ;
#247 = ADVANCED_FACE ( 'NONE', ( #137 ), #252, .F. ) ;
#248 = EDGE_CURVE ( 'NONE', #24, #315, #82, .T. ) ;
#249 = VECTOR ( 'NONE', #263, 1000.000000000000000 ) ;
#250 = VERTEX_POINT ( 'NONE', #232 ) ;
#251 = VERTEX_POINT ( 'NONE', #253 ) ;
#252 = PLANE ( 'NONE',  #174 ) ;
#253 = CARTESIAN_POINT ( 'NONE',  ( -6.000000000000000000, -0.7499999999999986677, -10.00000000000000000 ) ) ;
#254 = CARTESIAN_POINT ( 'NONE',  ( 474.0000000000000000, 0.7500000000000013323, -22.00000000000000000 ) ) ;
#255 = VECTOR ( 'NONE', #289, 1000.000000000000000 ) ;
#256 = VERTEX_POINT ( 'NONE', #103 ) ;
#257 = DIRECTION ( 'NONE',  ( 0.0000000000000000000, 0.0000000000000000000, -1.000000000000000000 ) ) ;
#258 = PLANE ( 'NONE',  #135 ) ;
#259 = PRODUCT_CONTEXT ( 'NONE', #215, 'mechanical' ) ;
#260 = LINE ( 'NONE', #51, #175 ) ;
#261 = VERTEX_POINT ( 'NONE', #58 ) ;
#262 = CARTESIAN_POINT ( 'NONE',  ( 0.0000000000000000000, 0.0000000000000000000, 0.0000000000000000000 ) ) ;
#263 = DIRECTION ( 'NONE',  ( -1.000000000000000000, -0.0000000000000000000, -0.0000000000000000000 ) ) ;
#264 = VECTOR ( 'NONE', #168, 1000.000000000000000 ) ;
#265 = VERTEX_POINT ( 'NONE', #78 ) ;
#266 = DIRECTION ( 'NONE',  ( -1.000000000000000000, -0.0000000000000000000, -0.0000000000000000000 ) ) ;
#267 = AXIS2_PLACEMENT_3D ( 'NONE', #147, #149, #173 ) ;
#268 = CARTESIAN_POINT ( 'NONE',  ( 474.0000000000000000, 0.7500000000000013323, -10.00000000000000000 ) ) ;
#269 = DIRECTION ( 'NONE',  ( -0.0000000000000000000, 1.000000000000000000, -0.0000000000000000000 ) ) ;
#270 = CARTESIAN_POINT ( 'NONE',  ( -6.000000000000000000, 2.000000000000001332, -10.00000000000000000 ) ) ;
#271 = EDGE_CURVE ( 'NONE', #237, #161, #163, .T. ) ;
#272 = LINE ( 'NONE', #318, #264 ) ;
#273 = ORIENTED_EDGE ( 'NONE', *, *, #181, .T. ) ;
#274 = ADVANCED_FACE ( 'NONE', ( #202 ), #100, .F. ) ;
#275 = ADVANCED_FACE ( 'NONE', ( #217 ), #258, .F. ) ;
#276 = FACE_OUTER_BOUND ( 'NONE', #95, .T. ) ;
#277 = EDGE_LOOP ( 'NONE', ( #314, #119, #207, #212, #178, #198, #74, #286 ) ) ;
#278 = CARTESIAN_POINT ( 'NONE',  ( -6.000000000000000000, 2.000000000000001332, 0.0000000000000000000 ) ) ;
#279 = VECTOR ( 'NONE', #210, 1000.000000000000000 ) ;
#280 = CARTESIAN_POINT ( 'NONE',  ( 474.0000000000000000, 0.0000000000000000000, 0.0000000000000000000 ) ) ;
#281 = VECTOR ( 'NONE', #142, 1000.000000000000000 ) ;
#282 = CARTESIAN_POINT ( 'NONE',  ( -6.000000000000000000, -1.999999999999998668, 0.0000000000000000000 ) ) ;
#283 = PLANE ( 'NONE',  #92 ) ;
#284 = LINE ( 'NONE', #200, #85 ) ;
#285 = VECTOR ( 'NONE', #144, 1000.000000000000000 ) ;
#286 = ORIENTED_EDGE ( 'NONE', *, *, #181, .F. ) ;
#287 = APPLICATION_CONTEXT ( 'automotive_design' ) ;
#288 =( NAMED_UNIT ( * ) SI_UNIT ( $, .STERADIAN. ) SOLID_ANGLE_UNIT ( ) );
#289 = DIRECTION ( 'NONE',  ( 0.0000000000000000000, 0.0000000000000000000, 1.000000000000000000 ) ) ;
#290 = CARTESIAN_POINT ( 'NONE',  ( 474.0000000000000000, -1.999999999999998668, -10.00000000000000000 ) ) ;
#291 = VECTOR ( 'NONE', #76, 1000.000000000000000 ) ;
#292 = EDGE_LOOP ( 'NONE', ( #15, #65, #98, #3 ) ) ;
#293 = CARTESIAN_POINT ( 'NONE',  ( 474.0000000000000000, -1.999999999999998668, -10.00000000000000000 ) ) ;
#294 = PRESENTATION_LAYER_ASSIGNMENT (  '', '', ( #177 ) ) ;
#295 = CARTESIAN_POINT ( 'NONE',  ( 474.0000000000000000, 0.7500000000000013323, -22.00000000000000000 ) ) ;
#296 = VECTOR ( 'NONE', #180, 1000.000000000000000 ) ;
#297 = ORIENTED_EDGE ( 'NONE', *, *, #38, .F. ) ;
#298 = ADVANCED_FACE ( 'NONE', ( #35 ), #187, .F. ) ;
#299 = EDGE_CURVE ( 'NONE', #43, #61, #148, .T. ) ;
#300 = LINE ( 'NONE', #199, #44 ) ;
#301 = CLOSED_SHELL ( 'NONE', ( #122, #46, #225, #151, #247, #275, #329, #298, #274, #120 ) ) ;
#302 = PRODUCT_DEFINITION_SHAPE ( 'NONE', 'NONE',  #311 ) ;
#303 = VECTOR ( 'NONE', #209, 1000.000000000000000 ) ;
#304 = ORIENTED_EDGE ( 'NONE', *, *, #299, .T. ) ;
#305 = DIRECTION ( 'NONE',  ( -0.0000000000000000000, 0.0000000000000000000, 1.000000000000000000 ) ) ;
#306 = DIRECTION ( 'NONE',  ( -0.0000000000000000000, 1.000000000000000000, 0.0000000000000000000 ) ) ;
#307 = DIRECTION ( 'NONE',  ( 1.000000000000000000, 0.0000000000000000000, -0.0000000000000000000 ) ) ;
#308 = VERTEX_POINT ( 'NONE', #194 ) ;
#309 = PLANE ( 'NONE',  #157 ) ;
#310 =( NAMED_UNIT ( * ) PLANE_ANGLE_UNIT ( ) SI_UNIT ( $, .RADIAN. ) );
#311 = PRODUCT_DEFINITION ( 'UNKNOWN', '', #66, #313 ) ;
#312 = FACE_OUTER_BOUND ( 'NONE', #334, .T. ) ;
#313 = PRODUCT_DEFINITION_CONTEXT ( 'detailed design', #287, 'design' ) ;
#314 = ORIENTED_EDGE ( 'NONE', *, *, #248, .F. ) ;
#315 = VERTEX_POINT ( 'NONE', #282 ) ;
#316 = UNCERTAINTY_MEASURE_WITH_UNIT (LENGTH_MEASURE( 1.000000000000000082E-05 ), #139, 'distance_accuracy_value', 'NONE');
#317 =( NAMED_UNIT ( * ) PLANE_ANGLE_UNIT ( ) SI_UNIT ( $, .RADIAN. ) );
#318 = CARTESIAN_POINT ( 'NONE',  ( -6.000000000000000000, -0.7499999999999986677, -10.00000000000000000 ) ) ;
#319 = EDGE_CURVE ( 'NONE', #161, #24, #126, .T. ) ;
#320 = SURFACE_STYLE_FILL_AREA ( #162 ) ;
#321 = VECTOR ( 'NONE', #266, 1000.000000000000000 ) ;
#322 = ORIENTED_EDGE ( 'NONE', *, *, #21, .F. ) ;
#323 = SURFACE_STYLE_USAGE ( .BOTH. , #64 ) ;
#324 =( NAMED_UNIT ( * ) PLANE_ANGLE_UNIT ( ) SI_UNIT ( $, .RADIAN. ) );
#325 = DIRECTION ( 'NONE',  ( 0.0000000000000000000, 0.0000000000000000000, -1.000000000000000000 ) ) ;
#326 = VECTOR ( 'NONE', #221, 1000.000000000000000 ) ;
#327 = ORIENTED_EDGE ( 'NONE', *, *, #94, .F. ) ;
#328 = ORIENTED_EDGE ( 'NONE', *, *, #77, .T. ) ;
#329 = ADVANCED_FACE ( 'NONE', ( #312 ), #238, .F. ) ;
#330 = VECTOR ( 'NONE', #32, 1000.000000000000000 ) ;
#331 = ORIENTED_EDGE ( 'NONE', *, *, #28, .T. ) ;
#332 = ORIENTED_EDGE ( 'NONE', *, *, #11, .T. ) ;
#333 = AXIS2_PLACEMENT_3D ( 'NONE', #290, #244, #68 ) ;
#334 = EDGE_LOOP ( 'NONE', ( #193, #304, #49, #327 ) ) ;
ENDSEC;
END-ISO-10303-21;
