ISO-10303-21;
HEADER;
FILE_DESCRIPTION (( 'STEP AP214' ),
    '1' );
FILE_NAME ('191804.STEP',
    '2020-02-13T11:18:59',
    ( '' ),
    ( '' ),
    'SwSTEP 2.0',
    'SolidWorks 2018',
    '' );
FILE_SCHEMA (( 'AUTOMOTIVE_DESIGN' ));
ENDSEC;

DATA;
#1 = DIRECTION ( 'NONE',  ( 0.0000000000000000000, 1.000000000000000000, 0.0000000000000000000 ) ) ;
#2 = AXIS2_PLACEMENT_3D ( 'NONE', #131, #330, #275 ) ;
#3 = COLOUR_RGB ( '',0.7921568627450980005, 0.8196078431372548767, 0.9333333333333333481 ) ;
#4 = VECTOR ( 'NONE', #34, 1000.000000000000000 ) ;
#5 = FILL_AREA_STYLE ('',( #287 ) ) ;
#6 = ADVANCED_FACE ( 'NONE', ( #223 ), #159, .F. ) ;
#7 = DIRECTION ( 'NONE',  ( 0.0000000000000000000, 0.0000000000000000000, 1.000000000000000000 ) ) ;
#8 = DIRECTION ( 'NONE',  ( 1.000000000000000000, 0.0000000000000000000, 0.0000000000000000000 ) ) ;
#9 = ORIENTED_EDGE ( 'NONE', *, *, #221, .T. ) ;
#10 = ORIENTED_EDGE ( 'NONE', *, *, #24, .F. ) ;
#11 = ORIENTED_EDGE ( 'NONE', *, *, #142, .F. ) ;
#12 = EDGE_LOOP ( 'NONE', ( #318, #25, #35, #21 ) ) ;
#13 = PRODUCT_DEFINITION ( 'UNKNOWN', '', #206, #220 ) ;
#14 = VECTOR ( 'NONE', #201, 1000.000000000000000 ) ;
#15 = FACE_OUTER_BOUND ( 'NONE', #80, .T. ) ;
#16 = CARTESIAN_POINT ( 'NONE',  ( 42.00000000000000000, 0.0000000000000000000, 0.0000000000000000000 ) ) ;
#17 = FACE_OUTER_BOUND ( 'NONE', #254, .T. ) ;
#18 = DIRECTION ( 'NONE',  ( 0.0000000000000000000, 0.0000000000000000000, 1.000000000000000000 ) ) ;
#19 = CARTESIAN_POINT ( 'NONE',  ( 42.00000000000000000, -0.7499999999999986677, -10.00000000000000000 ) ) ;
#20 =( LENGTH_UNIT ( ) NAMED_UNIT ( * ) SI_UNIT ( .MILLI., .METRE. ) );
#21 = ORIENTED_EDGE ( 'NONE', *, *, #221, .F. ) ;
#22 = VERTEX_POINT ( 'NONE', #57 ) ;
#23 = DIRECTION ( 'NONE',  ( 0.0000000000000000000, -0.0000000000000000000, 1.000000000000000000 ) ) ;
#24 = EDGE_CURVE ( 'NONE', #141, #144, #86, .T. ) ;
#25 = ORIENTED_EDGE ( 'NONE', *, *, #145, .T. ) ;
#26 =( NAMED_UNIT ( * ) SI_UNIT ( $, .STERADIAN. ) SOLID_ANGLE_UNIT ( ) );
#27 = AXIS2_PLACEMENT_3D ( 'NONE', #303, #277, #255 ) ;
#28 = CARTESIAN_POINT ( 'NONE',  ( 42.00000000000000000, 2.000000000000001332, 0.0000000000000000000 ) ) ;
#29 = DIRECTION ( 'NONE',  ( -0.0000000000000000000, 1.000000000000000000, -0.0000000000000000000 ) ) ;
#30 = PRESENTATION_STYLE_ASSIGNMENT (( #309 ) ) ;
#31 = FACE_OUTER_BOUND ( 'NONE', #323, .T. ) ;
#32 = PRODUCT_RELATED_PRODUCT_CATEGORY ( 'part', '', ( #140 ) ) ;
#33 = APPLICATION_CONTEXT ( 'automotive_design' ) ;
#34 = DIRECTION ( 'NONE',  ( 0.0000000000000000000, 1.000000000000000000, 0.0000000000000000000 ) ) ;
#35 = ORIENTED_EDGE ( 'NONE', *, *, #178, .F. ) ;
#36 = DIRECTION ( 'NONE',  ( 0.0000000000000000000, 0.0000000000000000000, 1.000000000000000000 ) ) ;
#37 = APPLICATION_CONTEXT ( 'automotive_design' ) ;
#38 = VECTOR ( 'NONE', #207, 1000.000000000000000 ) ;
#39 = ORIENTED_EDGE ( 'NONE', *, *, #54, .T. ) ;
#40 = VECTOR ( 'NONE', #212, 1000.000000000000000 ) ;
#41 = VERTEX_POINT ( 'NONE', #314 ) ;
#42 = ORIENTED_EDGE ( 'NONE', *, *, #90, .T. ) ;
#43 = EDGE_CURVE ( 'NONE', #87, #114, #166, .T. ) ;
#44 = CARTESIAN_POINT ( 'NONE',  ( -6.000000000000000000, -0.7499999999999986677, -22.00000000000000000 ) ) ;
#45 = FACE_OUTER_BOUND ( 'NONE', #333, .T. ) ;
#46 = CARTESIAN_POINT ( 'NONE',  ( -6.000000000000000000, 2.000000000000001332, 0.0000000000000000000 ) ) ;
#47 = DIRECTION ( 'NONE',  ( 1.000000000000000000, 0.0000000000000000000, 0.0000000000000000000 ) ) ;
#48 = DIRECTION ( 'NONE',  ( -1.000000000000000000, -0.0000000000000000000, -0.0000000000000000000 ) ) ;
#49 = EDGE_CURVE ( 'NONE', #214, #151, #50, .T. ) ;
#50 = LINE ( 'NONE', #158, #302 ) ;
#51 = ORIENTED_EDGE ( 'NONE', *, *, #74, .F. ) ;
#52 = DIRECTION ( 'NONE',  ( -1.000000000000000000, 0.0000000000000000000, -0.0000000000000000000 ) ) ;
#53 = PLANE ( 'NONE',  #164 ) ;
#54 = EDGE_CURVE ( 'NONE', #144, #22, #219, .T. ) ;
#55 = PLANE ( 'NONE',  #239 ) ;
#56 =( GEOMETRIC_REPRESENTATION_CONTEXT ( 3 ) GLOBAL_UNCERTAINTY_ASSIGNED_CONTEXT ( ( #92 ) ) GLOBAL_UNIT_ASSIGNED_CONTEXT ( ( #104, #281, #263 ) ) REPRESENTATION_CONTEXT ( 'NONE', 'WORKASPACE' ) );
#57 = CARTESIAN_POINT ( 'NONE',  ( -6.000000000000000000, 0.7500000000000013323, -10.00000000000000000 ) ) ;
#58 = VECTOR ( 'NONE', #284, 1000.000000000000000 ) ;
#59 = ORIENTED_EDGE ( 'NONE', *, *, #43, .F. ) ;
#60 = EDGE_CURVE ( 'NONE', #168, #103, #208, .T. ) ;
#61 = ORIENTED_EDGE ( 'NONE', *, *, #142, .T. ) ;
#62 = ORIENTED_EDGE ( 'NONE', *, *, #145, .F. ) ;
#63 = ORIENTED_EDGE ( 'NONE', *, *, #157, .T. ) ;
#64 = STYLED_ITEM ( 'NONE', ( #70 ), #66 ) ;
#65 = EDGE_CURVE ( 'NONE', #151, #75, #294, .T. ) ;
#66 = ADVANCED_BREP_SHAPE_REPRESENTATION ( '191804', ( #322, #288 ), #186 ) ;
#67 = VECTOR ( 'NONE', #183, 1000.000000000000000 ) ;
#68 = VERTEX_POINT ( 'NONE', #112 ) ;
#69 = CARTESIAN_POINT ( 'NONE',  ( -6.000000000000000000, 2.000000000000001332, 0.0000000000000000000 ) ) ;
#70 = PRESENTATION_STYLE_ASSIGNMENT (( #89 ) ) ;
#71 = ORIENTED_EDGE ( 'NONE', *, *, #190, .F. ) ;
#72 = DIRECTION ( 'NONE',  ( 0.0000000000000000000, 0.0000000000000000000, -1.000000000000000000 ) ) ;
#73 = FILL_AREA_STYLE ('',( #242 ) ) ;
#74 = EDGE_CURVE ( 'NONE', #268, #168, #138, .T. ) ;
#75 = VERTEX_POINT ( 'NONE', #267 ) ;
#76 = ORIENTED_EDGE ( 'NONE', *, *, #249, .F. ) ;
#77 = DIRECTION ( 'NONE',  ( -0.0000000000000000000, -0.0000000000000000000, -1.000000000000000000 ) ) ;
#78 = DIRECTION ( 'NONE',  ( 0.0000000000000000000, -1.000000000000000000, 0.0000000000000000000 ) ) ;
#79 = DIRECTION ( 'NONE',  ( 0.0000000000000000000, -0.0000000000000000000, -1.000000000000000000 ) ) ;
#80 = EDGE_LOOP ( 'NONE', ( #93, #324, #129, #76 ) ) ;
#81 = CARTESIAN_POINT ( 'NONE',  ( 42.00000000000000000, -0.7499999999999986677, -10.00000000000000000 ) ) ;
#82 = MECHANICAL_DESIGN_GEOMETRIC_PRESENTATION_REPRESENTATION (  '', ( #64 ), #99 ) ;
#83 = DIRECTION ( 'NONE',  ( 1.000000000000000000, 0.0000000000000000000, 0.0000000000000000000 ) ) ;
#84 = ADVANCED_FACE ( 'NONE', ( #31 ), #100, .F. ) ;
#85 = ADVANCED_FACE ( 'NONE', ( #197 ), #175, .F. ) ;
#86 = LINE ( 'NONE', #291, #150 ) ;
#87 = VERTEX_POINT ( 'NONE', #226 ) ;
#88 = VECTOR ( 'NONE', #149, 1000.000000000000000 ) ;
#89 = SURFACE_STYLE_USAGE ( .BOTH. , #200 ) ;
#90 = EDGE_CURVE ( 'NONE', #268, #321, #143, .T. ) ;
#91 = ORIENTED_EDGE ( 'NONE', *, *, #111, .T. ) ;
#92 = UNCERTAINTY_MEASURE_WITH_UNIT (LENGTH_MEASURE( 1.000000000000000082E-05 ), #104, 'distance_accuracy_value', 'NONE');
#93 = ORIENTED_EDGE ( 'NONE', *, *, #60, .T. ) ;
#94 = AXIS2_PLACEMENT_3D ( 'NONE', #161, #319, #8 ) ;
#95 = CARTESIAN_POINT ( 'NONE',  ( 42.00000000000000000, 0.7500000000000013323, -10.00000000000000000 ) ) ;
#96 = DIRECTION ( 'NONE',  ( 1.000000000000000000, 0.0000000000000000000, -0.0000000000000000000 ) ) ;
#97 = ORIENTED_EDGE ( 'NONE', *, *, #249, .T. ) ;
#98 = PLANE ( 'NONE',  #27 ) ;
#99 =( GEOMETRIC_REPRESENTATION_CONTEXT ( 3 ) GLOBAL_UNCERTAINTY_ASSIGNED_CONTEXT ( ( #310 ) ) GLOBAL_UNIT_ASSIGNED_CONTEXT ( ( #20, #259, #133 ) ) REPRESENTATION_CONTEXT ( 'NONE', 'WORKASPACE' ) );
#100 = PLANE ( 'NONE',  #116 ) ;
#101 = EDGE_CURVE ( 'NONE', #198, #114, #229, .T. ) ;
#102 = LINE ( 'NONE', #258, #257 ) ;
#103 = VERTEX_POINT ( 'NONE', #231 ) ;
#104 =( LENGTH_UNIT ( ) NAMED_UNIT ( * ) SI_UNIT ( .MILLI., .METRE. ) );
#105 = CARTESIAN_POINT ( 'NONE',  ( 42.00000000000000000, 2.000000000000001332, 0.0000000000000000000 ) ) ;
#106 =( NAMED_UNIT ( * ) PLANE_ANGLE_UNIT ( ) SI_UNIT ( $, .RADIAN. ) );
#107 = EDGE_CURVE ( 'NONE', #214, #141, #233, .T. ) ;
#108 = LINE ( 'NONE', #187, #40 ) ;
#109 = ORIENTED_EDGE ( 'NONE', *, *, #178, .T. ) ;
#110 = CARTESIAN_POINT ( 'NONE',  ( -6.000000000000000000, -1.999999999999998668, 0.0000000000000000000 ) ) ;
#111 = EDGE_CURVE ( 'NONE', #68, #268, #299, .T. ) ;
#112 = CARTESIAN_POINT ( 'NONE',  ( 42.00000000000000000, -1.999999999999998668, 0.0000000000000000000 ) ) ;
#113 = ADVANCED_FACE ( 'NONE', ( #120 ), #232, .F. ) ;
#114 = VERTEX_POINT ( 'NONE', #69 ) ;
#115 = ORIENTED_EDGE ( 'NONE', *, *, #173, .T. ) ;
#116 = AXIS2_PLACEMENT_3D ( 'NONE', #16, #128, #205 ) ;
#117 = SURFACE_STYLE_FILL_AREA ( #5 ) ;
#118 = APPLICATION_PROTOCOL_DEFINITION ( 'draft international standard', 'automotive_design', 1998, #33 ) ;
#119 = VECTOR ( 'NONE', #77, 1000.000000000000000 ) ;
#120 = FACE_OUTER_BOUND ( 'NONE', #251, .T. ) ;
#121 = CLOSED_SHELL ( 'NONE', ( #296, #286, #6, #216, #163, #113, #85, #320, #84, #160 ) ) ;
#122 = COLOUR_RGB ( '',0.7921568627450980005, 0.8196078431372548767, 0.9333333333333333481 ) ;
#123 = ORIENTED_EDGE ( 'NONE', *, *, #49, .T. ) ;
#124 = PLANE ( 'NONE',  #170 ) ;
#125 = CARTESIAN_POINT ( 'NONE',  ( 42.00000000000000000, 2.000000000000001332, -10.00000000000000000 ) ) ;
#126 = CARTESIAN_POINT ( 'NONE',  ( -6.000000000000000000, -1.999999999999998668, -10.00000000000000000 ) ) ;
#127 = VECTOR ( 'NONE', #203, 1000.000000000000000 ) ;
#128 = DIRECTION ( 'NONE',  ( -1.000000000000000000, 0.0000000000000000000, 0.0000000000000000000 ) ) ;
#129 = ORIENTED_EDGE ( 'NONE', *, *, #49, .F. ) ;
#130 = ORIENTED_EDGE ( 'NONE', *, *, #177, .F. ) ;
#131 = CARTESIAN_POINT ( 'NONE',  ( 42.00000000000000000, 0.7500000000000013323, -22.00000000000000000 ) ) ;
#132 = PRODUCT_DEFINITION_SHAPE ( 'NONE', 'NONE',  #13 ) ;
#133 =( NAMED_UNIT ( * ) SI_UNIT ( $, .STERADIAN. ) SOLID_ANGLE_UNIT ( ) );
#134 = PLANE ( 'NONE',  #270 ) ;
#135 = CARTESIAN_POINT ( 'NONE',  ( 42.00000000000000000, -0.7499999999999986677, -10.00000000000000000 ) ) ;
#136 = LINE ( 'NONE', #334, #244 ) ;
#137 = ORIENTED_EDGE ( 'NONE', *, *, #60, .F. ) ;
#138 = LINE ( 'NONE', #81, #204 ) ;
#139 = APPLICATION_PROTOCOL_DEFINITION ( 'draft international standard', 'automotive_design', 1998, #37 ) ;
#140 = PRODUCT ( '191804', '191804', '', ( #218 ) ) ;
#141 = VERTEX_POINT ( 'NONE', #253 ) ;
#142 = EDGE_CURVE ( 'NONE', #75, #22, #102, .T. ) ;
#143 = LINE ( 'NONE', #306, #241 ) ;
#144 = VERTEX_POINT ( 'NONE', #95 ) ;
#145 = EDGE_CURVE ( 'NONE', #114, #245, #148, .T. ) ;
#146 = STYLED_ITEM ( 'NONE', ( #30 ), #322 ) ;
#147 = CARTESIAN_POINT ( 'NONE',  ( -6.000000000000000000, 2.000000000000001332, -10.00000000000000000 ) ) ;
#148 = LINE ( 'NONE', #46, #282 ) ;
#149 = DIRECTION ( 'NONE',  ( -0.0000000000000000000, -0.0000000000000000000, -1.000000000000000000 ) ) ;
#150 = VECTOR ( 'NONE', #36, 1000.000000000000000 ) ;
#151 = VERTEX_POINT ( 'NONE', #44 ) ;
#152 = ORIENTED_EDGE ( 'NONE', *, *, #190, .T. ) ;
#153 = CARTESIAN_POINT ( 'NONE',  ( -6.000000000000000000, -1.999999999999998668, -10.00000000000000000 ) ) ;
#154 = CARTESIAN_POINT ( 'NONE',  ( 42.00000000000000000, -0.7499999999999986677, -10.00000000000000000 ) ) ;
#155 = ORIENTED_EDGE ( 'NONE', *, *, #173, .F. ) ;
#156 = CARTESIAN_POINT ( 'NONE',  ( 42.00000000000000000, 2.000000000000001332, -10.00000000000000000 ) ) ;
#157 = EDGE_CURVE ( 'NONE', #141, #75, #250, .T. ) ;
#158 = CARTESIAN_POINT ( 'NONE',  ( 42.00000000000000000, -0.7499999999999986677, -22.00000000000000000 ) ) ;
#159 = PLANE ( 'NONE',  #94 ) ;
#160 = ADVANCED_FACE ( 'NONE', ( #196 ), #98, .T. ) ;
#161 = CARTESIAN_POINT ( 'NONE',  ( 42.00000000000000000, -0.7499999999999986677, -10.00000000000000000 ) ) ;
#162 = ORIENTED_EDGE ( 'NONE', *, *, #74, .T. ) ;
#163 = ADVANCED_FACE ( 'NONE', ( #17 ), #124, .F. ) ;
#164 = AXIS2_PLACEMENT_3D ( 'NONE', #237, #238, #52 ) ;
#165 = LINE ( 'NONE', #156, #58 ) ;
#166 = LINE ( 'NONE', #191, #271 ) ;
#167 = MECHANICAL_DESIGN_GEOMETRIC_PRESENTATION_REPRESENTATION (  '', ( #146 ), #56 ) ;
#168 = VERTEX_POINT ( 'NONE', #19 ) ;
#169 = ORIENTED_EDGE ( 'NONE', *, *, #293, .F. ) ;
#170 = AXIS2_PLACEMENT_3D ( 'NONE', #279, #172, #96 ) ;
#171 = LINE ( 'NONE', #28, #316 ) ;
#172 = DIRECTION ( 'NONE',  ( 0.0000000000000000000, 0.0000000000000000000, 1.000000000000000000 ) ) ;
#173 = EDGE_CURVE ( 'NONE', #41, #198, #240, .T. ) ;
#174 = ORIENTED_EDGE ( 'NONE', *, *, #265, .F. ) ;
#175 = PLANE ( 'NONE',  #222 ) ;
#176 = AXIS2_PLACEMENT_3D ( 'NONE', #260, #1, #184 ) ;
#177 = EDGE_CURVE ( 'NONE', #103, #151, #248, .T. ) ;
#178 = EDGE_CURVE ( 'NONE', #68, #245, #180, .T. ) ;
#179 = DIRECTION ( 'NONE',  ( -1.000000000000000000, -0.0000000000000000000, -0.0000000000000000000 ) ) ;
#180 = LINE ( 'NONE', #227, #67 ) ;
#181 = VECTOR ( 'NONE', #327, 1000.000000000000000 ) ;
#182 = EDGE_LOOP ( 'NONE', ( #109, #152, #266, #301 ) ) ;
#183 = DIRECTION ( 'NONE',  ( -1.000000000000000000, -0.0000000000000000000, -0.0000000000000000000 ) ) ;
#184 = DIRECTION ( 'NONE',  ( 0.0000000000000000000, -0.0000000000000000000, 1.000000000000000000 ) ) ;
#185 =( LENGTH_UNIT ( ) NAMED_UNIT ( * ) SI_UNIT ( .MILLI., .METRE. ) );
#186 =( GEOMETRIC_REPRESENTATION_CONTEXT ( 3 ) GLOBAL_UNCERTAINTY_ASSIGNED_CONTEXT ( ( #211 ) ) GLOBAL_UNIT_ASSIGNED_CONTEXT ( ( #185, #106, #26 ) ) REPRESENTATION_CONTEXT ( 'NONE', 'WORKASPACE' ) );
#187 = CARTESIAN_POINT ( 'NONE',  ( -6.000000000000000000, -0.7499999999999986677, -10.00000000000000000 ) ) ;
#188 = FACE_OUTER_BOUND ( 'NONE', #12, .T. ) ;
#189 = DIRECTION ( 'NONE',  ( -1.000000000000000000, -0.0000000000000000000, -0.0000000000000000000 ) ) ;
#190 = EDGE_CURVE ( 'NONE', #245, #321, #202, .T. ) ;
#191 = CARTESIAN_POINT ( 'NONE',  ( -6.000000000000000000, 2.000000000000001332, -10.00000000000000000 ) ) ;
#192 = DIRECTION ( 'NONE',  ( 0.0000000000000000000, 0.0000000000000000000, 1.000000000000000000 ) ) ;
#193 = ORIENTED_EDGE ( 'NONE', *, *, #65, .T. ) ;
#194 = EDGE_CURVE ( 'NONE', #22, #87, #332, .T. ) ;
#195 = PRESENTATION_LAYER_ASSIGNMENT (  '', '', ( #64 ) ) ;
#196 = FACE_OUTER_BOUND ( 'NONE', #261, .T. ) ;
#197 = FACE_OUTER_BOUND ( 'NONE', #295, .T. ) ;
#198 = VERTEX_POINT ( 'NONE', #105 ) ;
#199 = ORIENTED_EDGE ( 'NONE', *, *, #272, .F. ) ;
#200 = SURFACE_SIDE_STYLE ('',( #117 ) ) ;
#201 = DIRECTION ( 'NONE',  ( 0.0000000000000000000, 1.000000000000000000, 0.0000000000000000000 ) ) ;
#202 = LINE ( 'NONE', #126, #119 ) ;
#203 = DIRECTION ( 'NONE',  ( 0.0000000000000000000, 0.0000000000000000000, 1.000000000000000000 ) ) ;
#204 = VECTOR ( 'NONE', #217, 1000.000000000000000 ) ;
#205 = DIRECTION ( 'NONE',  ( 0.0000000000000000000, 0.0000000000000000000, 1.000000000000000000 ) ) ;
#206 = PRODUCT_DEFINITION_FORMATION_WITH_SPECIFIED_SOURCE ( 'ANY', '', #140, .NOT_KNOWN. ) ;
#207 = DIRECTION ( 'NONE',  ( 0.0000000000000000000, 0.0000000000000000000, -1.000000000000000000 ) ) ;
#208 = LINE ( 'NONE', #243, #317 ) ;
#209 = EDGE_LOOP ( 'NONE', ( #42, #290, #137, #51 ) ) ;
#210 = SURFACE_SIDE_STYLE ('',( #312 ) ) ;
#211 = UNCERTAINTY_MEASURE_WITH_UNIT (LENGTH_MEASURE( 1.000000000000000082E-05 ), #185, 'distance_accuracy_value', 'NONE');
#212 = DIRECTION ( 'NONE',  ( -0.0000000000000000000, 1.000000000000000000, -0.0000000000000000000 ) ) ;
#213 = DIRECTION ( 'NONE',  ( -1.000000000000000000, -0.0000000000000000000, -0.0000000000000000000 ) ) ;
#214 = VERTEX_POINT ( 'NONE', #285 ) ;
#215 = CARTESIAN_POINT ( 'NONE',  ( 42.00000000000000000, 0.7500000000000013323, -10.00000000000000000 ) ) ;
#216 = ADVANCED_FACE ( 'NONE', ( #15 ), #55, .F. ) ;
#217 = DIRECTION ( 'NONE',  ( -0.0000000000000000000, 1.000000000000000000, -0.0000000000000000000 ) ) ;
#218 = PRODUCT_CONTEXT ( 'NONE', #37, 'mechanical' ) ;
#219 = LINE ( 'NONE', #215, #328 ) ;
#220 = PRODUCT_DEFINITION_CONTEXT ( 'detailed design', #33, 'design' ) ;
#221 = EDGE_CURVE ( 'NONE', #198, #68, #171, .T. ) ;
#222 = AXIS2_PLACEMENT_3D ( 'NONE', #125, #276, #47 ) ;
#223 = FACE_OUTER_BOUND ( 'NONE', #209, .T. ) ;
#224 = ORIENTED_EDGE ( 'NONE', *, *, #65, .F. ) ;
#225 = ORIENTED_EDGE ( 'NONE', *, *, #194, .T. ) ;
#226 = CARTESIAN_POINT ( 'NONE',  ( -6.000000000000000000, 2.000000000000001332, -10.00000000000000000 ) ) ;
#227 = CARTESIAN_POINT ( 'NONE',  ( 42.00000000000000000, -1.999999999999998668, 0.0000000000000000000 ) ) ;
#228 = SHAPE_DEFINITION_REPRESENTATION ( #132, #66 ) ;
#229 = LINE ( 'NONE', #304, #181 ) ;
#230 = CARTESIAN_POINT ( 'NONE',  ( 42.00000000000000000, -1.999999999999998668, -10.00000000000000000 ) ) ;
#231 = CARTESIAN_POINT ( 'NONE',  ( -6.000000000000000000, -0.7499999999999986677, -10.00000000000000000 ) ) ;
#232 = PLANE ( 'NONE',  #2 ) ;
#233 = LINE ( 'NONE', #280, #14 ) ;
#234 = ORIENTED_EDGE ( 'NONE', *, *, #107, .F. ) ;
#235 = ORIENTED_EDGE ( 'NONE', *, *, #194, .F. ) ;
#236 = DIRECTION ( 'NONE',  ( 0.0000000000000000000, -1.000000000000000000, 0.0000000000000000000 ) ) ;
#237 = CARTESIAN_POINT ( 'NONE',  ( 42.00000000000000000, 2.000000000000001332, 0.0000000000000000000 ) ) ;
#238 = DIRECTION ( 'NONE',  ( 0.0000000000000000000, 0.0000000000000000000, -1.000000000000000000 ) ) ;
#239 = AXIS2_PLACEMENT_3D ( 'NONE', #135, #264, #23 ) ;
#240 = LINE ( 'NONE', #325, #127 ) ;
#241 = VECTOR ( 'NONE', #48, 1000.000000000000000 ) ;
#242 = FILL_AREA_STYLE_COLOUR ( '', #3 ) ;
#243 = CARTESIAN_POINT ( 'NONE',  ( 42.00000000000000000, -0.7499999999999986677, -10.00000000000000000 ) ) ;
#244 = VECTOR ( 'NONE', #313, 1000.000000000000000 ) ;
#245 = VERTEX_POINT ( 'NONE', #110 ) ;
#246 = CARTESIAN_POINT ( 'NONE',  ( 0.0000000000000000000, 0.0000000000000000000, 0.0000000000000000000 ) ) ;
#247 = PRESENTATION_LAYER_ASSIGNMENT (  '', '', ( #146 ) ) ;
#248 = LINE ( 'NONE', #329, #298 ) ;
#249 = EDGE_CURVE ( 'NONE', #168, #214, #305, .T. ) ;
#250 = LINE ( 'NONE', #326, #300 ) ;
#251 = EDGE_LOOP ( 'NONE', ( #63, #61, #274, #10 ) ) ;
#252 = VECTOR ( 'NONE', #29, 1000.000000000000000 ) ;
#253 = CARTESIAN_POINT ( 'NONE',  ( 42.00000000000000000, 0.7500000000000013323, -22.00000000000000000 ) ) ;
#254 = EDGE_LOOP ( 'NONE', ( #123, #193, #308, #234 ) ) ;
#255 = DIRECTION ( 'NONE',  ( 0.0000000000000000000, 0.0000000000000000000, 1.000000000000000000 ) ) ;
#256 = DIRECTION ( 'NONE',  ( 0.0000000000000000000, -1.000000000000000000, 0.0000000000000000000 ) ) ;
#257 = VECTOR ( 'NONE', #18, 1000.000000000000000 ) ;
#258 = CARTESIAN_POINT ( 'NONE',  ( -6.000000000000000000, 0.7500000000000013323, -22.00000000000000000 ) ) ;
#259 =( NAMED_UNIT ( * ) PLANE_ANGLE_UNIT ( ) SI_UNIT ( $, .RADIAN. ) );
#260 = CARTESIAN_POINT ( 'NONE',  ( 42.00000000000000000, -1.999999999999998668, -10.00000000000000000 ) ) ;
#261 = EDGE_LOOP ( 'NONE', ( #62, #59, #235, #11, #224, #130, #169, #71 ) ) ;
#262 = ORIENTED_EDGE ( 'NONE', *, *, #107, .T. ) ;
#263 =( NAMED_UNIT ( * ) SI_UNIT ( $, .STERADIAN. ) SOLID_ANGLE_UNIT ( ) );
#264 = DIRECTION ( 'NONE',  ( -0.0000000000000000000, 1.000000000000000000, 0.0000000000000000000 ) ) ;
#265 = EDGE_CURVE ( 'NONE', #144, #41, #165, .T. ) ;
#266 = ORIENTED_EDGE ( 'NONE', *, *, #90, .F. ) ;
#267 = CARTESIAN_POINT ( 'NONE',  ( -6.000000000000000000, 0.7500000000000013323, -22.00000000000000000 ) ) ;
#268 = VERTEX_POINT ( 'NONE', #289 ) ;
#269 = FACE_OUTER_BOUND ( 'NONE', #182, .T. ) ;
#270 = AXIS2_PLACEMENT_3D ( 'NONE', #311, #78, #79 ) ;
#271 = VECTOR ( 'NONE', #7, 1000.000000000000000 ) ;
#272 = EDGE_CURVE ( 'NONE', #41, #87, #136, .T. ) ;
#273 = ORIENTED_EDGE ( 'NONE', *, *, #265, .T. ) ;
#274 = ORIENTED_EDGE ( 'NONE', *, *, #54, .F. ) ;
#275 = DIRECTION ( 'NONE',  ( 0.0000000000000000000, -0.0000000000000000000, -1.000000000000000000 ) ) ;
#276 = DIRECTION ( 'NONE',  ( -0.0000000000000000000, 0.0000000000000000000, 1.000000000000000000 ) ) ;
#277 = DIRECTION ( 'NONE',  ( -1.000000000000000000, 0.0000000000000000000, 0.0000000000000000000 ) ) ;
#278 = ORIENTED_EDGE ( 'NONE', *, *, #43, .T. ) ;
#279 = CARTESIAN_POINT ( 'NONE',  ( 42.00000000000000000, -0.7499999999999986677, -22.00000000000000000 ) ) ;
#280 = CARTESIAN_POINT ( 'NONE',  ( 42.00000000000000000, -0.7499999999999986677, -22.00000000000000000 ) ) ;
#281 =( NAMED_UNIT ( * ) PLANE_ANGLE_UNIT ( ) SI_UNIT ( $, .RADIAN. ) );
#282 = VECTOR ( 'NONE', #256, 1000.000000000000000 ) ;
#283 = ORIENTED_EDGE ( 'NONE', *, *, #272, .T. ) ;
#284 = DIRECTION ( 'NONE',  ( -0.0000000000000000000, 1.000000000000000000, -0.0000000000000000000 ) ) ;
#285 = CARTESIAN_POINT ( 'NONE',  ( 42.00000000000000000, -0.7499999999999986677, -22.00000000000000000 ) ) ;
#286 = ADVANCED_FACE ( 'NONE', ( #269 ), #331, .F. ) ;
#287 = FILL_AREA_STYLE_COLOUR ( '', #122 ) ;
#288 = AXIS2_PLACEMENT_3D ( 'NONE', #246, #192, #83 ) ;
#289 = CARTESIAN_POINT ( 'NONE',  ( 42.00000000000000000, -1.999999999999998668, -10.00000000000000000 ) ) ;
#290 = ORIENTED_EDGE ( 'NONE', *, *, #293, .T. ) ;
#291 = CARTESIAN_POINT ( 'NONE',  ( 42.00000000000000000, 0.7500000000000013323, -22.00000000000000000 ) ) ;
#292 = CARTESIAN_POINT ( 'NONE',  ( -6.000000000000000000, -0.7499999999999986677, -22.00000000000000000 ) ) ;
#293 = EDGE_CURVE ( 'NONE', #321, #103, #108, .T. ) ;
#294 = LINE ( 'NONE', #292, #4 ) ;
#295 = EDGE_LOOP ( 'NONE', ( #39, #225, #199, #174 ) ) ;
#296 = ADVANCED_FACE ( 'NONE', ( #188 ), #53, .F. ) ;
#297 = ORIENTED_EDGE ( 'NONE', *, *, #24, .T. ) ;
#298 = VECTOR ( 'NONE', #72, 1000.000000000000000 ) ;
#299 = LINE ( 'NONE', #230, #88 ) ;
#300 = VECTOR ( 'NONE', #179, 1000.000000000000000 ) ;
#301 = ORIENTED_EDGE ( 'NONE', *, *, #111, .F. ) ;
#302 = VECTOR ( 'NONE', #213, 1000.000000000000000 ) ;
#303 = CARTESIAN_POINT ( 'NONE',  ( -6.000000000000000000, 0.0000000000000000000, 0.0000000000000000000 ) ) ;
#304 = CARTESIAN_POINT ( 'NONE',  ( 42.00000000000000000, 2.000000000000001332, 0.0000000000000000000 ) ) ;
#305 = LINE ( 'NONE', #154, #38 ) ;
#306 = CARTESIAN_POINT ( 'NONE',  ( 42.00000000000000000, -1.999999999999998668, -10.00000000000000000 ) ) ;
#307 = ORIENTED_EDGE ( 'NONE', *, *, #101, .F. ) ;
#308 = ORIENTED_EDGE ( 'NONE', *, *, #157, .F. ) ;
#309 = SURFACE_STYLE_USAGE ( .BOTH. , #210 ) ;
#310 = UNCERTAINTY_MEASURE_WITH_UNIT (LENGTH_MEASURE( 1.000000000000000082E-05 ), #20, 'distance_accuracy_value', 'NONE');
#311 = CARTESIAN_POINT ( 'NONE',  ( 42.00000000000000000, 2.000000000000001332, -10.00000000000000000 ) ) ;
#312 = SURFACE_STYLE_FILL_AREA ( #73 ) ;
#313 = DIRECTION ( 'NONE',  ( -1.000000000000000000, -0.0000000000000000000, -0.0000000000000000000 ) ) ;
#314 = CARTESIAN_POINT ( 'NONE',  ( 42.00000000000000000, 2.000000000000001332, -10.00000000000000000 ) ) ;
#315 = DIRECTION ( 'NONE',  ( -1.000000000000000000, -0.0000000000000000000, -0.0000000000000000000 ) ) ;
#316 = VECTOR ( 'NONE', #236, 1000.000000000000000 ) ;
#317 = VECTOR ( 'NONE', #315, 1000.000000000000000 ) ;
#318 = ORIENTED_EDGE ( 'NONE', *, *, #101, .T. ) ;
#319 = DIRECTION ( 'NONE',  ( -0.0000000000000000000, 0.0000000000000000000, 1.000000000000000000 ) ) ;
#320 = ADVANCED_FACE ( 'NONE', ( #45 ), #134, .F. ) ;
#321 = VERTEX_POINT ( 'NONE', #153 ) ;
#322 = MANIFOLD_SOLID_BREP ( 'Aufsatz-Linear austragen1', #121 ) ;
#323 = EDGE_LOOP ( 'NONE', ( #9, #91, #162, #97, #262, #297, #273, #115 ) ) ;
#324 = ORIENTED_EDGE ( 'NONE', *, *, #177, .T. ) ;
#325 = CARTESIAN_POINT ( 'NONE',  ( 42.00000000000000000, 2.000000000000001332, -10.00000000000000000 ) ) ;
#326 = CARTESIAN_POINT ( 'NONE',  ( 42.00000000000000000, 0.7500000000000013323, -22.00000000000000000 ) ) ;
#327 = DIRECTION ( 'NONE',  ( -1.000000000000000000, -0.0000000000000000000, -0.0000000000000000000 ) ) ;
#328 = VECTOR ( 'NONE', #189, 1000.000000000000000 ) ;
#329 = CARTESIAN_POINT ( 'NONE',  ( -6.000000000000000000, -0.7499999999999986677, -10.00000000000000000 ) ) ;
#330 = DIRECTION ( 'NONE',  ( 0.0000000000000000000, -1.000000000000000000, 0.0000000000000000000 ) ) ;
#331 = PLANE ( 'NONE',  #176 ) ;
#332 = LINE ( 'NONE', #147, #252 ) ;
#333 = EDGE_LOOP ( 'NONE', ( #283, #278, #307, #155 ) ) ;
#334 = CARTESIAN_POINT ( 'NONE',  ( 42.00000000000000000, 2.000000000000001332, -10.00000000000000000 ) ) ;
ENDSEC;
END-ISO-10303-21;
