ISO-10303-21;
HEADER;
FILE_DESCRIPTION (( 'STEP AP214' ),
    '1' );
FILE_NAME ('191801.STEP',
    '2020-02-13T11:17:50',
    ( '' ),
    ( '' ),
    'SwSTEP 2.0',
    'SolidWorks 2018',
    '' );
FILE_SCHEMA (( 'AUTOMOTIVE_DESIGN' ));
ENDSEC;

DATA;
#1 = DIRECTION ( 'NONE',  ( 0.0000000000000000000, 0.0000000000000000000, 1.000000000000000000 ) ) ;
#2 = PRODUCT_DEFINITION_SHAPE ( 'NONE', 'NONE',  #260 ) ;
#3 = FACE_OUTER_BOUND ( 'NONE', #254, .T. ) ;
#4 = VERTEX_POINT ( 'NONE', #65 ) ;
#5 = DIRECTION ( 'NONE',  ( 1.000000000000000000, 0.0000000000000000000, 0.0000000000000000000 ) ) ;
#6 = ADVANCED_FACE ( 'NONE', ( #200 ), #261, .F. ) ;
#7 = APPLICATION_PROTOCOL_DEFINITION ( 'draft international standard', 'automotive_design', 1998, #136 ) ;
#8 = VECTOR ( 'NONE', #217, 1000.000000000000000 ) ;
#9 = UNCERTAINTY_MEASURE_WITH_UNIT (LENGTH_MEASURE( 1.000000000000000082E-05 ), #143, 'distance_accuracy_value', 'NONE');
#10 = ORIENTED_EDGE ( 'NONE', *, *, #106, .T. ) ;
#11 =( GEOMETRIC_REPRESENTATION_CONTEXT ( 3 ) GLOBAL_UNCERTAINTY_ASSIGNED_CONTEXT ( ( #124 ) ) GLOBAL_UNIT_ASSIGNED_CONTEXT ( ( #285, #32, #160 ) ) REPRESENTATION_CONTEXT ( 'NONE', 'WORKASPACE' ) );
#12 = CARTESIAN_POINT ( 'NONE',  ( 462.0000000000000000, 2.000000000000001332, 0.0000000000000000000 ) ) ;
#13 = PLANE ( 'NONE',  #42 ) ;
#14 = CARTESIAN_POINT ( 'NONE',  ( -6.000000000000000000, -0.7499999999999986677, -10.00000000000000000 ) ) ;
#15 = ADVANCED_FACE ( 'NONE', ( #207 ), #13, .F. ) ;
#16 = DIRECTION ( 'NONE',  ( 0.0000000000000000000, 0.0000000000000000000, 1.000000000000000000 ) ) ;
#17 = VECTOR ( 'NONE', #192, 1000.000000000000000 ) ;
#18 = ORIENTED_EDGE ( 'NONE', *, *, #299, .T. ) ;
#19 = CARTESIAN_POINT ( 'NONE',  ( -6.000000000000000000, 2.000000000000001332, 0.0000000000000000000 ) ) ;
#20 = CARTESIAN_POINT ( 'NONE',  ( -6.000000000000000000, 2.000000000000001332, 0.0000000000000000000 ) ) ;
#21 = LINE ( 'NONE', #272, #8 ) ;
#22 = EDGE_CURVE ( 'NONE', #139, #266, #321, .T. ) ;
#23 = DIRECTION ( 'NONE',  ( 0.0000000000000000000, 1.000000000000000000, 0.0000000000000000000 ) ) ;
#24 = CARTESIAN_POINT ( 'NONE',  ( 462.0000000000000000, -1.999999999999998668, -10.00000000000000000 ) ) ;
#25 = STYLED_ITEM ( 'NONE', ( #84 ), #184 ) ;
#26 = VECTOR ( 'NONE', #16, 1000.000000000000000 ) ;
#27 = ORIENTED_EDGE ( 'NONE', *, *, #299, .F. ) ;
#28 = EDGE_CURVE ( 'NONE', #266, #247, #315, .T. ) ;
#29 = LINE ( 'NONE', #77, #237 ) ;
#30 = ORIENTED_EDGE ( 'NONE', *, *, #320, .T. ) ;
#31 = COLOUR_RGB ( '',0.7921568627450980005, 0.8196078431372548767, 0.9333333333333333481 ) ;
#32 =( NAMED_UNIT ( * ) PLANE_ANGLE_UNIT ( ) SI_UNIT ( $, .RADIAN. ) );
#33 = ORIENTED_EDGE ( 'NONE', *, *, #333, .F. ) ;
#34 = VECTOR ( 'NONE', #92, 1000.000000000000000 ) ;
#35 = PRESENTATION_LAYER_ASSIGNMENT (  '', '', ( #25 ) ) ;
#36 = EDGE_LOOP ( 'NONE', ( #10, #79, #278, #41 ) ) ;
#37 = CARTESIAN_POINT ( 'NONE',  ( 462.0000000000000000, 2.000000000000001332, -10.00000000000000000 ) ) ;
#38 = ADVANCED_FACE ( 'NONE', ( #256 ), #325, .F. ) ;
#39 = PLANE ( 'NONE',  #255 ) ;
#40 = DIRECTION ( 'NONE',  ( -1.000000000000000000, -0.0000000000000000000, -0.0000000000000000000 ) ) ;
#41 = ORIENTED_EDGE ( 'NONE', *, *, #320, .F. ) ;
#42 = AXIS2_PLACEMENT_3D ( 'NONE', #68, #195, #5 ) ;
#43 = DIRECTION ( 'NONE',  ( 0.0000000000000000000, 1.000000000000000000, 0.0000000000000000000 ) ) ;
#44 = EDGE_CURVE ( 'NONE', #59, #330, #224, .T. ) ;
#45 = VERTEX_POINT ( 'NONE', #48 ) ;
#46 = PLANE ( 'NONE',  #55 ) ;
#47 = ORIENTED_EDGE ( 'NONE', *, *, #61, .T. ) ;
#48 = CARTESIAN_POINT ( 'NONE',  ( 462.0000000000000000, -0.7499999999999986677, -22.00000000000000000 ) ) ;
#49 = CARTESIAN_POINT ( 'NONE',  ( 462.0000000000000000, -0.7499999999999986677, -10.00000000000000000 ) ) ;
#50 = AXIS2_PLACEMENT_3D ( 'NONE', #176, #153, #277 ) ;
#51 = VECTOR ( 'NONE', #142, 1000.000000000000000 ) ;
#52 = ORIENTED_EDGE ( 'NONE', *, *, #181, .F. ) ;
#53 = CARTESIAN_POINT ( 'NONE',  ( 462.0000000000000000, -1.999999999999998668, -10.00000000000000000 ) ) ;
#54 = EDGE_LOOP ( 'NONE', ( #235, #273, #243, #290 ) ) ;
#55 = AXIS2_PLACEMENT_3D ( 'NONE', #78, #282, #204 ) ;
#56 = EDGE_CURVE ( 'NONE', #93, #135, #29, .T. ) ;
#57 = ORIENTED_EDGE ( 'NONE', *, *, #258, .T. ) ;
#58 = SURFACE_STYLE_FILL_AREA ( #102 ) ;
#59 = VERTEX_POINT ( 'NONE', #20 ) ;
#60 = PRESENTATION_LAYER_ASSIGNMENT (  '', '', ( #329 ) ) ;
#61 = EDGE_CURVE ( 'NONE', #197, #330, #304, .T. ) ;
#62 = LINE ( 'NONE', #118, #246 ) ;
#63 = ORIENTED_EDGE ( 'NONE', *, *, #181, .T. ) ;
#64 = CARTESIAN_POINT ( 'NONE',  ( 462.0000000000000000, -1.999999999999998668, -10.00000000000000000 ) ) ;
#65 = CARTESIAN_POINT ( 'NONE',  ( -6.000000000000000000, -0.7499999999999986677, -22.00000000000000000 ) ) ;
#66 = AXIS2_PLACEMENT_3D ( 'NONE', #12, #264, #112 ) ;
#67 = CARTESIAN_POINT ( 'NONE',  ( 462.0000000000000000, 2.000000000000001332, -10.00000000000000000 ) ) ;
#68 = CARTESIAN_POINT ( 'NONE',  ( 462.0000000000000000, 2.000000000000001332, -10.00000000000000000 ) ) ;
#69 = ORIENTED_EDGE ( 'NONE', *, *, #216, .F. ) ;
#70 = CARTESIAN_POINT ( 'NONE',  ( -6.000000000000000000, -1.999999999999998668, 0.0000000000000000000 ) ) ;
#71 = VECTOR ( 'NONE', #221, 1000.000000000000000 ) ;
#72 = EDGE_LOOP ( 'NONE', ( #129, #257, #253, #226 ) ) ;
#73 = ADVANCED_FACE ( 'NONE', ( #163 ), #328, .F. ) ;
#74 = VERTEX_POINT ( 'NONE', #53 ) ;
#75 = APPLICATION_CONTEXT ( 'automotive_design' ) ;
#76 = MECHANICAL_DESIGN_GEOMETRIC_PRESENTATION_REPRESENTATION (  '', ( #25 ), #105 ) ;
#77 = CARTESIAN_POINT ( 'NONE',  ( -6.000000000000000000, -0.7499999999999986677, -10.00000000000000000 ) ) ;
#78 = CARTESIAN_POINT ( 'NONE',  ( -6.000000000000000000, 0.0000000000000000000, 0.0000000000000000000 ) ) ;
#79 = ORIENTED_EDGE ( 'NONE', *, *, #263, .T. ) ;
#80 = EDGE_CURVE ( 'NONE', #108, #59, #205, .T. ) ;
#81 = VECTOR ( 'NONE', #303, 1000.000000000000000 ) ;
#82 = ORIENTED_EDGE ( 'NONE', *, *, #147, .T. ) ;
#83 = VECTOR ( 'NONE', #96, 1000.000000000000000 ) ;
#84 = PRESENTATION_STYLE_ASSIGNMENT (( #281 ) ) ;
#85 = VERTEX_POINT ( 'NONE', #97 ) ;
#86 = CARTESIAN_POINT ( 'NONE',  ( 462.0000000000000000, -1.999999999999998668, -10.00000000000000000 ) ) ;
#87 = DIRECTION ( 'NONE',  ( -1.000000000000000000, 0.0000000000000000000, 0.0000000000000000000 ) ) ;
#88 = LINE ( 'NONE', #138, #26 ) ;
#89 = EDGE_LOOP ( 'NONE', ( #280, #63, #215, #210, #310, #30, #188, #190 ) ) ;
#90 = APPLICATION_PROTOCOL_DEFINITION ( 'draft international standard', 'automotive_design', 1998, #75 ) ;
#91 =( NAMED_UNIT ( * ) SI_UNIT ( $, .STERADIAN. ) SOLID_ANGLE_UNIT ( ) );
#92 = DIRECTION ( 'NONE',  ( 0.0000000000000000000, -1.000000000000000000, 0.0000000000000000000 ) ) ;
#93 = VERTEX_POINT ( 'NONE', #127 ) ;
#94 = VECTOR ( 'NONE', #301, 1000.000000000000000 ) ;
#95 = PLANE ( 'NONE',  #187 ) ;
#96 = DIRECTION ( 'NONE',  ( 0.0000000000000000000, 1.000000000000000000, 0.0000000000000000000 ) ) ;
#97 = CARTESIAN_POINT ( 'NONE',  ( 462.0000000000000000, 2.000000000000001332, -10.00000000000000000 ) ) ;
#98 = VECTOR ( 'NONE', #262, 1000.000000000000000 ) ;
#99 = FILL_AREA_STYLE_COLOUR ( '', #115 ) ;
#100 = ORIENTED_EDGE ( 'NONE', *, *, #216, .T. ) ;
#101 = EDGE_CURVE ( 'NONE', #140, #135, #144, .T. ) ;
#102 = FILL_AREA_STYLE ('',( #99 ) ) ;
#103 = CARTESIAN_POINT ( 'NONE',  ( -6.000000000000000000, 2.000000000000001332, -10.00000000000000000 ) ) ;
#104 = VECTOR ( 'NONE', #43, 1000.000000000000000 ) ;
#105 =( GEOMETRIC_REPRESENTATION_CONTEXT ( 3 ) GLOBAL_UNCERTAINTY_ASSIGNED_CONTEXT ( ( #332 ) ) GLOBAL_UNIT_ASSIGNED_CONTEXT ( ( #203, #199, #91 ) ) REPRESENTATION_CONTEXT ( 'NONE', 'WORKASPACE' ) );
#106 = EDGE_CURVE ( 'NONE', #297, #119, #133, .T. ) ;
#107 = FACE_OUTER_BOUND ( 'NONE', #36, .T. ) ;
#108 = VERTEX_POINT ( 'NONE', #171 ) ;
#109 = ORIENTED_EDGE ( 'NONE', *, *, #158, .F. ) ;
#110 = ORIENTED_EDGE ( 'NONE', *, *, #232, .F. ) ;
#111 = ADVANCED_FACE ( 'NONE', ( #196 ), #95, .F. ) ;
#112 = DIRECTION ( 'NONE',  ( -1.000000000000000000, 0.0000000000000000000, -0.0000000000000000000 ) ) ;
#113 = DIRECTION ( 'NONE',  ( 0.0000000000000000000, 0.0000000000000000000, 1.000000000000000000 ) ) ;
#114 = MECHANICAL_DESIGN_GEOMETRIC_PRESENTATION_REPRESENTATION (  '', ( #329 ), #11 ) ;
#115 = COLOUR_RGB ( '',0.7921568627450980005, 0.8196078431372548767, 0.9333333333333333481 ) ;
#116 = ORIENTED_EDGE ( 'NONE', *, *, #28, .T. ) ;
#117 =( NAMED_UNIT ( * ) PLANE_ANGLE_UNIT ( ) SI_UNIT ( $, .RADIAN. ) );
#118 = CARTESIAN_POINT ( 'NONE',  ( 462.0000000000000000, 0.7500000000000013323, -22.00000000000000000 ) ) ;
#119 = VERTEX_POINT ( 'NONE', #125 ) ;
#120 = VECTOR ( 'NONE', #298, 1000.000000000000000 ) ;
#121 = AXIS2_PLACEMENT_3D ( 'NONE', #238, #87, #268 ) ;
#122 = VECTOR ( 'NONE', #40, 1000.000000000000000 ) ;
#123 = ORIENTED_EDGE ( 'NONE', *, *, #201, .T. ) ;
#124 = UNCERTAINTY_MEASURE_WITH_UNIT (LENGTH_MEASURE( 1.000000000000000082E-05 ), #285, 'distance_accuracy_value', 'NONE');
#125 = CARTESIAN_POINT ( 'NONE',  ( -6.000000000000000000, 0.7500000000000013323, -22.00000000000000000 ) ) ;
#126 = ORIENTED_EDGE ( 'NONE', *, *, #56, .T. ) ;
#127 = CARTESIAN_POINT ( 'NONE',  ( -6.000000000000000000, -1.999999999999998668, -10.00000000000000000 ) ) ;
#128 = DIRECTION ( 'NONE',  ( 1.000000000000000000, 0.0000000000000000000, 0.0000000000000000000 ) ) ;
#129 = ORIENTED_EDGE ( 'NONE', *, *, #80, .T. ) ;
#130 = CARTESIAN_POINT ( 'NONE',  ( 462.0000000000000000, 2.000000000000001332, 0.0000000000000000000 ) ) ;
#131 = EDGE_LOOP ( 'NONE', ( #213, #116, #334, #33 ) ) ;
#132 = EDGE_CURVE ( 'NONE', #140, #45, #279, .T. ) ;
#133 = LINE ( 'NONE', #251, #81 ) ;
#134 = CARTESIAN_POINT ( 'NONE',  ( 462.0000000000000000, 0.7500000000000013323, -22.00000000000000000 ) ) ;
#135 = VERTEX_POINT ( 'NONE', #302 ) ;
#136 = APPLICATION_CONTEXT ( 'automotive_design' ) ;
#137 = LINE ( 'NONE', #274, #83 ) ;
#138 = CARTESIAN_POINT ( 'NONE',  ( -6.000000000000000000, 0.7500000000000013323, -22.00000000000000000 ) ) ;
#139 = VERTEX_POINT ( 'NONE', #152 ) ;
#140 = VERTEX_POINT ( 'NONE', #173 ) ;
#141 = CARTESIAN_POINT ( 'NONE',  ( 462.0000000000000000, -1.999999999999998668, 0.0000000000000000000 ) ) ;
#142 = DIRECTION ( 'NONE',  ( -0.0000000000000000000, -0.0000000000000000000, -1.000000000000000000 ) ) ;
#143 =( LENGTH_UNIT ( ) NAMED_UNIT ( * ) SI_UNIT ( .MILLI., .METRE. ) );
#144 = LINE ( 'NONE', #49, #233 ) ;
#145 = ORIENTED_EDGE ( 'NONE', *, *, #56, .F. ) ;
#146 = SURFACE_SIDE_STYLE ('',( #287 ) ) ;
#147 = EDGE_CURVE ( 'NONE', #330, #93, #218, .T. ) ;
#148 = ADVANCED_FACE ( 'NONE', ( #172 ), #46, .T. ) ;
#149 = FILL_AREA_STYLE ('',( #295 ) ) ;
#150 = DIRECTION ( 'NONE',  ( 0.0000000000000000000, -0.0000000000000000000, -1.000000000000000000 ) ) ;
#151 = LINE ( 'NONE', #86, #309 ) ;
#152 = CARTESIAN_POINT ( 'NONE',  ( 462.0000000000000000, 0.7500000000000013323, -10.00000000000000000 ) ) ;
#153 = DIRECTION ( 'NONE',  ( -0.0000000000000000000, 1.000000000000000000, 0.0000000000000000000 ) ) ;
#154 = LINE ( 'NONE', #219, #296 ) ;
#155 = ORIENTED_EDGE ( 'NONE', *, *, #44, .F. ) ;
#156 = VECTOR ( 'NONE', #208, 1000.000000000000000 ) ;
#157 = AXIS2_PLACEMENT_3D ( 'NONE', #244, #227, #128 ) ;
#158 = EDGE_CURVE ( 'NONE', #45, #297, #137, .T. ) ;
#159 = CLOSED_SHELL ( 'NONE', ( #245, #73, #269, #38, #6, #169, #15, #111, #275, #148 ) ) ;
#160 =( NAMED_UNIT ( * ) SI_UNIT ( $, .STERADIAN. ) SOLID_ANGLE_UNIT ( ) );
#161 = EDGE_CURVE ( 'NONE', #108, #197, #291, .T. ) ;
#162 = CARTESIAN_POINT ( 'NONE',  ( -6.000000000000000000, 2.000000000000001332, -10.00000000000000000 ) ) ;
#163 = FACE_OUTER_BOUND ( 'NONE', #305, .T. ) ;
#164 = MANIFOLD_SOLID_BREP ( 'Aufsatz-Linear austragen1', #159 ) ;
#165 = CARTESIAN_POINT ( 'NONE',  ( 462.0000000000000000, 0.7500000000000013323, -10.00000000000000000 ) ) ;
#166 = VECTOR ( 'NONE', #1, 1000.000000000000000 ) ;
#167 = DIRECTION ( 'NONE',  ( -0.0000000000000000000, 0.0000000000000000000, 1.000000000000000000 ) ) ;
#168 = ORIENTED_EDGE ( 'NONE', *, *, #106, .F. ) ;
#169 = ADVANCED_FACE ( 'NONE', ( #107 ), #236, .F. ) ;
#170 = CARTESIAN_POINT ( 'NONE',  ( 462.0000000000000000, 2.000000000000001332, -10.00000000000000000 ) ) ;
#171 = CARTESIAN_POINT ( 'NONE',  ( 462.0000000000000000, 2.000000000000001332, 0.0000000000000000000 ) ) ;
#172 = FACE_OUTER_BOUND ( 'NONE', #327, .T. ) ;
#173 = CARTESIAN_POINT ( 'NONE',  ( 462.0000000000000000, -0.7499999999999986677, -10.00000000000000000 ) ) ;
#174 = EDGE_CURVE ( 'NONE', #247, #59, #234, .T. ) ;
#175 = LINE ( 'NONE', #37, #98 ) ;
#176 = CARTESIAN_POINT ( 'NONE',  ( 462.0000000000000000, -0.7499999999999986677, -10.00000000000000000 ) ) ;
#177 = ORIENTED_EDGE ( 'NONE', *, *, #311, .F. ) ;
#178 = AXIS2_PLACEMENT_3D ( 'NONE', #134, #306, #252 ) ;
#179 = SURFACE_SIDE_STYLE ('',( #58 ) ) ;
#180 = SURFACE_STYLE_USAGE ( .BOTH. , #179 ) ;
#181 = EDGE_CURVE ( 'NONE', #197, #74, #265, .T. ) ;
#182 = LINE ( 'NONE', #67, #71 ) ;
#183 = ORIENTED_EDGE ( 'NONE', *, *, #28, .F. ) ;
#184 = ADVANCED_BREP_SHAPE_REPRESENTATION ( '191801', ( #164, #157 ), #270 ) ;
#185 = PRODUCT ( '191801', '191801', '', ( #322 ) ) ;
#186 = VECTOR ( 'NONE', #314, 1000.000000000000000 ) ;
#187 = AXIS2_PLACEMENT_3D ( 'NONE', #248, #202, #150 ) ;
#188 = ORIENTED_EDGE ( 'NONE', *, *, #333, .T. ) ;
#189 = LINE ( 'NONE', #170, #120 ) ;
#190 = ORIENTED_EDGE ( 'NONE', *, *, #311, .T. ) ;
#191 = AXIS2_PLACEMENT_3D ( 'NONE', #24, #23, #229 ) ;
#192 = DIRECTION ( 'NONE',  ( -0.0000000000000000000, -0.0000000000000000000, -1.000000000000000000 ) ) ;
#193 = CARTESIAN_POINT ( 'NONE',  ( 462.0000000000000000, -0.7499999999999986677, -22.00000000000000000 ) ) ;
#194 = CARTESIAN_POINT ( 'NONE',  ( -6.000000000000000000, 2.000000000000001332, -10.00000000000000000 ) ) ;
#195 = DIRECTION ( 'NONE',  ( -0.0000000000000000000, 0.0000000000000000000, 1.000000000000000000 ) ) ;
#196 = FACE_OUTER_BOUND ( 'NONE', #308, .T. ) ;
#197 = VERTEX_POINT ( 'NONE', #141 ) ;
#198 = DIRECTION ( 'NONE',  ( -1.000000000000000000, -0.0000000000000000000, -0.0000000000000000000 ) ) ;
#199 =( NAMED_UNIT ( * ) PLANE_ANGLE_UNIT ( ) SI_UNIT ( $, .RADIAN. ) );
#200 = FACE_OUTER_BOUND ( 'NONE', #223, .T. ) ;
#201 = EDGE_CURVE ( 'NONE', #85, #247, #175, .T. ) ;
#202 = DIRECTION ( 'NONE',  ( 0.0000000000000000000, -1.000000000000000000, 0.0000000000000000000 ) ) ;
#203 =( LENGTH_UNIT ( ) NAMED_UNIT ( * ) SI_UNIT ( .MILLI., .METRE. ) );
#204 = DIRECTION ( 'NONE',  ( 0.0000000000000000000, 0.0000000000000000000, 1.000000000000000000 ) ) ;
#205 = LINE ( 'NONE', #249, #94 ) ;
#206 = SHAPE_DEFINITION_REPRESENTATION ( #2, #184 ) ;
#207 = FACE_OUTER_BOUND ( 'NONE', #131, .T. ) ;
#208 = DIRECTION ( 'NONE',  ( 0.0000000000000000000, -1.000000000000000000, 0.0000000000000000000 ) ) ;
#209 = CARTESIAN_POINT ( 'NONE',  ( 462.0000000000000000, -0.7499999999999986677, -10.00000000000000000 ) ) ;
#210 = ORIENTED_EDGE ( 'NONE', *, *, #132, .T. ) ;
#211 = AXIS2_PLACEMENT_3D ( 'NONE', #193, #113, #293 ) ;
#212 = PRESENTATION_STYLE_ASSIGNMENT (( #180 ) ) ;
#213 = ORIENTED_EDGE ( 'NONE', *, *, #22, .T. ) ;
#214 = PRODUCT_RELATED_PRODUCT_CATEGORY ( 'part', '', ( #185 ) ) ;
#215 = ORIENTED_EDGE ( 'NONE', *, *, #232, .T. ) ;
#216 = EDGE_CURVE ( 'NONE', #4, #119, #283, .T. ) ;
#217 = DIRECTION ( 'NONE',  ( -1.000000000000000000, -0.0000000000000000000, -0.0000000000000000000 ) ) ;
#218 = LINE ( 'NONE', #294, #51 ) ;
#219 = CARTESIAN_POINT ( 'NONE',  ( 462.0000000000000000, -0.7499999999999986677, -10.00000000000000000 ) ) ;
#220 = CARTESIAN_POINT ( 'NONE',  ( 462.0000000000000000, 0.7500000000000013323, -22.00000000000000000 ) ) ;
#221 = DIRECTION ( 'NONE',  ( 0.0000000000000000000, 0.0000000000000000000, 1.000000000000000000 ) ) ;
#222 = VECTOR ( 'NONE', #312, 1000.000000000000000 ) ;
#223 = EDGE_LOOP ( 'NONE', ( #57, #100, #168, #109 ) ) ;
#224 = LINE ( 'NONE', #19, #156 ) ;
#225 = DIRECTION ( 'NONE',  ( -1.000000000000000000, -0.0000000000000000000, -0.0000000000000000000 ) ) ;
#226 = ORIENTED_EDGE ( 'NONE', *, *, #161, .F. ) ;
#227 = DIRECTION ( 'NONE',  ( 0.0000000000000000000, 0.0000000000000000000, 1.000000000000000000 ) ) ;
#228 = DIRECTION ( 'NONE',  ( -1.000000000000000000, -0.0000000000000000000, -0.0000000000000000000 ) ) ;
#229 = DIRECTION ( 'NONE',  ( 0.0000000000000000000, -0.0000000000000000000, 1.000000000000000000 ) ) ;
#230 = DIRECTION ( 'NONE',  ( 0.0000000000000000000, 0.0000000000000000000, -1.000000000000000000 ) ) ;
#231 = ORIENTED_EDGE ( 'NONE', *, *, #174, .T. ) ;
#232 = EDGE_CURVE ( 'NONE', #74, #140, #154, .T. ) ;
#233 = VECTOR ( 'NONE', #228, 1000.000000000000000 ) ;
#234 = LINE ( 'NONE', #103, #166 ) ;
#235 = ORIENTED_EDGE ( 'NONE', *, *, #101, .T. ) ;
#236 = PLANE ( 'NONE',  #178 ) ;
#237 = VECTOR ( 'NONE', #323, 1000.000000000000000 ) ;
#238 = CARTESIAN_POINT ( 'NONE',  ( 462.0000000000000000, 0.0000000000000000000, 0.0000000000000000000 ) ) ;
#239 = CARTESIAN_POINT ( 'NONE',  ( -6.000000000000000000, -0.7499999999999986677, -22.00000000000000000 ) ) ;
#240 = PLANE ( 'NONE',  #121 ) ;
#241 = VECTOR ( 'NONE', #230, 1000.000000000000000 ) ;
#242 = DIRECTION ( 'NONE',  ( -0.0000000000000000000, 1.000000000000000000, -0.0000000000000000000 ) ) ;
#243 = ORIENTED_EDGE ( 'NONE', *, *, #258, .F. ) ;
#244 = CARTESIAN_POINT ( 'NONE',  ( 0.0000000000000000000, 0.0000000000000000000, 0.0000000000000000000 ) ) ;
#245 = ADVANCED_FACE ( 'NONE', ( #326 ), #318, .F. ) ;
#246 = VECTOR ( 'NONE', #316, 1000.000000000000000 ) ;
#247 = VERTEX_POINT ( 'NONE', #194 ) ;
#248 = CARTESIAN_POINT ( 'NONE',  ( 462.0000000000000000, 2.000000000000001332, -10.00000000000000000 ) ) ;
#249 = CARTESIAN_POINT ( 'NONE',  ( 462.0000000000000000, 2.000000000000001332, 0.0000000000000000000 ) ) ;
#250 = ORIENTED_EDGE ( 'NONE', *, *, #101, .F. ) ;
#251 = CARTESIAN_POINT ( 'NONE',  ( 462.0000000000000000, 0.7500000000000013323, -22.00000000000000000 ) ) ;
#252 = DIRECTION ( 'NONE',  ( 0.0000000000000000000, -0.0000000000000000000, -1.000000000000000000 ) ) ;
#253 = ORIENTED_EDGE ( 'NONE', *, *, #61, .F. ) ;
#254 = EDGE_LOOP ( 'NONE', ( #18, #126, #250, #110 ) ) ;
#255 = AXIS2_PLACEMENT_3D ( 'NONE', #271, #167, #313 ) ;
#256 = FACE_OUTER_BOUND ( 'NONE', #54, .T. ) ;
#257 = ORIENTED_EDGE ( 'NONE', *, *, #44, .T. ) ;
#258 = EDGE_CURVE ( 'NONE', #45, #4, #21, .T. ) ;
#259 = ORIENTED_EDGE ( 'NONE', *, *, #263, .F. ) ;
#260 = PRODUCT_DEFINITION ( 'UNKNOWN', '', #288, #276 ) ;
#261 = PLANE ( 'NONE',  #211 ) ;
#262 = DIRECTION ( 'NONE',  ( -1.000000000000000000, -0.0000000000000000000, -0.0000000000000000000 ) ) ;
#263 = EDGE_CURVE ( 'NONE', #119, #266, #88, .T. ) ;
#264 = DIRECTION ( 'NONE',  ( 0.0000000000000000000, 0.0000000000000000000, -1.000000000000000000 ) ) ;
#265 = LINE ( 'NONE', #64, #17 ) ;
#266 = VERTEX_POINT ( 'NONE', #292 ) ;
#267 = ORIENTED_EDGE ( 'NONE', *, *, #174, .F. ) ;
#268 = DIRECTION ( 'NONE',  ( 0.0000000000000000000, 0.0000000000000000000, 1.000000000000000000 ) ) ;
#269 = ADVANCED_FACE ( 'NONE', ( #3 ), #39, .F. ) ;
#270 =( GEOMETRIC_REPRESENTATION_CONTEXT ( 3 ) GLOBAL_UNCERTAINTY_ASSIGNED_CONTEXT ( ( #9 ) ) GLOBAL_UNIT_ASSIGNED_CONTEXT ( ( #143, #117, #319 ) ) REPRESENTATION_CONTEXT ( 'NONE', 'WORKASPACE' ) );
#271 = CARTESIAN_POINT ( 'NONE',  ( 462.0000000000000000, -0.7499999999999986677, -10.00000000000000000 ) ) ;
#272 = CARTESIAN_POINT ( 'NONE',  ( 462.0000000000000000, -0.7499999999999986677, -22.00000000000000000 ) ) ;
#273 = ORIENTED_EDGE ( 'NONE', *, *, #286, .T. ) ;
#274 = CARTESIAN_POINT ( 'NONE',  ( 462.0000000000000000, -0.7499999999999986677, -22.00000000000000000 ) ) ;
#275 = ADVANCED_FACE ( 'NONE', ( #300 ), #240, .F. ) ;
#276 = PRODUCT_DEFINITION_CONTEXT ( 'detailed design', #75, 'design' ) ;
#277 = DIRECTION ( 'NONE',  ( 0.0000000000000000000, -0.0000000000000000000, 1.000000000000000000 ) ) ;
#278 = ORIENTED_EDGE ( 'NONE', *, *, #22, .F. ) ;
#279 = LINE ( 'NONE', #209, #241 ) ;
#280 = ORIENTED_EDGE ( 'NONE', *, *, #161, .T. ) ;
#281 = SURFACE_STYLE_USAGE ( .BOTH. , #146 ) ;
#282 = DIRECTION ( 'NONE',  ( -1.000000000000000000, 0.0000000000000000000, 0.0000000000000000000 ) ) ;
#283 = LINE ( 'NONE', #239, #104 ) ;
#284 = ORIENTED_EDGE ( 'NONE', *, *, #147, .F. ) ;
#285 =( LENGTH_UNIT ( ) NAMED_UNIT ( * ) SI_UNIT ( .MILLI., .METRE. ) );
#286 = EDGE_CURVE ( 'NONE', #135, #4, #289, .T. ) ;
#287 = SURFACE_STYLE_FILL_AREA ( #149 ) ;
#288 = PRODUCT_DEFINITION_FORMATION_WITH_SPECIFIED_SOURCE ( 'ANY', '', #185, .NOT_KNOWN. ) ;
#289 = LINE ( 'NONE', #14, #222 ) ;
#290 = ORIENTED_EDGE ( 'NONE', *, *, #132, .F. ) ;
#291 = LINE ( 'NONE', #130, #34 ) ;
#292 = CARTESIAN_POINT ( 'NONE',  ( -6.000000000000000000, 0.7500000000000013323, -10.00000000000000000 ) ) ;
#293 = DIRECTION ( 'NONE',  ( 1.000000000000000000, 0.0000000000000000000, -0.0000000000000000000 ) ) ;
#294 = CARTESIAN_POINT ( 'NONE',  ( -6.000000000000000000, -1.999999999999998668, -10.00000000000000000 ) ) ;
#295 = FILL_AREA_STYLE_COLOUR ( '', #31 ) ;
#296 = VECTOR ( 'NONE', #242, 1000.000000000000000 ) ;
#297 = VERTEX_POINT ( 'NONE', #220 ) ;
#298 = DIRECTION ( 'NONE',  ( -0.0000000000000000000, 1.000000000000000000, -0.0000000000000000000 ) ) ;
#299 = EDGE_CURVE ( 'NONE', #74, #93, #151, .T. ) ;
#300 = FACE_OUTER_BOUND ( 'NONE', #89, .T. ) ;
#301 = DIRECTION ( 'NONE',  ( -1.000000000000000000, -0.0000000000000000000, -0.0000000000000000000 ) ) ;
#302 = CARTESIAN_POINT ( 'NONE',  ( -6.000000000000000000, -0.7499999999999986677, -10.00000000000000000 ) ) ;
#303 = DIRECTION ( 'NONE',  ( -1.000000000000000000, -0.0000000000000000000, -0.0000000000000000000 ) ) ;
#304 = LINE ( 'NONE', #324, #307 ) ;
#305 = EDGE_LOOP ( 'NONE', ( #47, #82, #27, #52 ) ) ;
#306 = DIRECTION ( 'NONE',  ( 0.0000000000000000000, -1.000000000000000000, 0.0000000000000000000 ) ) ;
#307 = VECTOR ( 'NONE', #225, 1000.000000000000000 ) ;
#308 = EDGE_LOOP ( 'NONE', ( #123, #231, #331, #177 ) ) ;
#309 = VECTOR ( 'NONE', #198, 1000.000000000000000 ) ;
#310 = ORIENTED_EDGE ( 'NONE', *, *, #158, .T. ) ;
#311 = EDGE_CURVE ( 'NONE', #85, #108, #182, .T. ) ;
#312 = DIRECTION ( 'NONE',  ( 0.0000000000000000000, 0.0000000000000000000, -1.000000000000000000 ) ) ;
#313 = DIRECTION ( 'NONE',  ( 1.000000000000000000, 0.0000000000000000000, 0.0000000000000000000 ) ) ;
#314 = DIRECTION ( 'NONE',  ( -0.0000000000000000000, 1.000000000000000000, -0.0000000000000000000 ) ) ;
#315 = LINE ( 'NONE', #162, #186 ) ;
#316 = DIRECTION ( 'NONE',  ( 0.0000000000000000000, 0.0000000000000000000, 1.000000000000000000 ) ) ;
#317 = ORIENTED_EDGE ( 'NONE', *, *, #286, .F. ) ;
#318 = PLANE ( 'NONE',  #66 ) ;
#319 =( NAMED_UNIT ( * ) SI_UNIT ( $, .STERADIAN. ) SOLID_ANGLE_UNIT ( ) );
#320 = EDGE_CURVE ( 'NONE', #297, #139, #62, .T. ) ;
#321 = LINE ( 'NONE', #165, #122 ) ;
#322 = PRODUCT_CONTEXT ( 'NONE', #136, 'mechanical' ) ;
#323 = DIRECTION ( 'NONE',  ( -0.0000000000000000000, 1.000000000000000000, -0.0000000000000000000 ) ) ;
#324 = CARTESIAN_POINT ( 'NONE',  ( 462.0000000000000000, -1.999999999999998668, 0.0000000000000000000 ) ) ;
#325 = PLANE ( 'NONE',  #50 ) ;
#326 = FACE_OUTER_BOUND ( 'NONE', #72, .T. ) ;
#327 = EDGE_LOOP ( 'NONE', ( #155, #267, #183, #259, #69, #317, #145, #284 ) ) ;
#328 = PLANE ( 'NONE',  #191 ) ;
#329 = STYLED_ITEM ( 'NONE', ( #212 ), #164 ) ;
#330 = VERTEX_POINT ( 'NONE', #70 ) ;
#331 = ORIENTED_EDGE ( 'NONE', *, *, #80, .F. ) ;
#332 = UNCERTAINTY_MEASURE_WITH_UNIT (LENGTH_MEASURE( 1.000000000000000082E-05 ), #203, 'distance_accuracy_value', 'NONE');
#333 = EDGE_CURVE ( 'NONE', #139, #85, #189, .T. ) ;
#334 = ORIENTED_EDGE ( 'NONE', *, *, #201, .F. ) ;
ENDSEC;
END-ISO-10303-21;
