ISO-10303-21;
HEADER;
FILE_DESCRIPTION (( 'STEP AP214' ),
    '1' );
FILE_NAME ('191787.STEP',
    '2020-02-13T11:16:42',
    ( '' ),
    ( '' ),
    'SwSTEP 2.0',
    'SolidWorks 2018',
    '' );
FILE_SCHEMA (( 'AUTOMOTIVE_DESIGN' ));
ENDSEC;

DATA;
#1 = VECTOR ( 'NONE', #303, 1000.000000000000000 ) ;
#2 = AXIS2_PLACEMENT_3D ( 'NONE', #115, #299, #45 ) ;
#3 = LINE ( 'NONE', #257, #294 ) ;
#4 = DIRECTION ( 'NONE',  ( 1.000000000000000000, 0.0000000000000000000, -0.0000000000000000000 ) ) ;
#5 = CARTESIAN_POINT ( 'NONE',  ( 450.0000000000000000, -0.7499999999999986677, -22.00000000000000000 ) ) ;
#6 = ORIENTED_EDGE ( 'NONE', *, *, #291, .T. ) ;
#7 = DIRECTION ( 'NONE',  ( 0.0000000000000000000, 0.0000000000000000000, -1.000000000000000000 ) ) ;
#8 = ORIENTED_EDGE ( 'NONE', *, *, #267, .T. ) ;
#9 = CARTESIAN_POINT ( 'NONE',  ( -6.000000000000000000, 0.7500000000000013323, -22.00000000000000000 ) ) ;
#10 =( NAMED_UNIT ( * ) PLANE_ANGLE_UNIT ( ) SI_UNIT ( $, .RADIAN. ) );
#11 =( NAMED_UNIT ( * ) PLANE_ANGLE_UNIT ( ) SI_UNIT ( $, .RADIAN. ) );
#12 = ORIENTED_EDGE ( 'NONE', *, *, #23, .F. ) ;
#13 = APPLICATION_CONTEXT ( 'automotive_design' ) ;
#14 = VECTOR ( 'NONE', #235, 1000.000000000000000 ) ;
#15 = EDGE_CURVE ( 'NONE', #92, #284, #145, .T. ) ;
#16 = APPLICATION_CONTEXT ( 'automotive_design' ) ;
#17 = CARTESIAN_POINT ( 'NONE',  ( -6.000000000000000000, 0.0000000000000000000, 0.0000000000000000000 ) ) ;
#18 = APPLICATION_PROTOCOL_DEFINITION ( 'draft international standard', 'automotive_design', 1998, #16 ) ;
#19 = DIRECTION ( 'NONE',  ( -0.0000000000000000000, 0.0000000000000000000, 1.000000000000000000 ) ) ;
#20 = ADVANCED_FACE ( 'NONE', ( #333 ), #265, .F. ) ;
#21 =( LENGTH_UNIT ( ) NAMED_UNIT ( * ) SI_UNIT ( .MILLI., .METRE. ) );
#22 = SURFACE_SIDE_STYLE ('',( #50 ) ) ;
#23 = EDGE_CURVE ( 'NONE', #229, #219, #91, .T. ) ;
#24 = PRODUCT_DEFINITION_CONTEXT ( 'detailed design', #16, 'design' ) ;
#25 = LINE ( 'NONE', #182, #193 ) ;
#26 =( GEOMETRIC_REPRESENTATION_CONTEXT ( 3 ) GLOBAL_UNCERTAINTY_ASSIGNED_CONTEXT ( ( #170 ) ) GLOBAL_UNIT_ASSIGNED_CONTEXT ( ( #21, #218, #277 ) ) REPRESENTATION_CONTEXT ( 'NONE', 'WORKASPACE' ) );
#27 = DIRECTION ( 'NONE',  ( 0.0000000000000000000, 0.0000000000000000000, 1.000000000000000000 ) ) ;
#28 = DIRECTION ( 'NONE',  ( -0.0000000000000000000, 1.000000000000000000, -0.0000000000000000000 ) ) ;
#29 = ORIENTED_EDGE ( 'NONE', *, *, #267, .F. ) ;
#30 = CARTESIAN_POINT ( 'NONE',  ( -6.000000000000000000, -0.7499999999999986677, -22.00000000000000000 ) ) ;
#31 = VECTOR ( 'NONE', #210, 1000.000000000000000 ) ;
#32 = CARTESIAN_POINT ( 'NONE',  ( -6.000000000000000000, -1.999999999999998668, -10.00000000000000000 ) ) ;
#33 = UNCERTAINTY_MEASURE_WITH_UNIT (LENGTH_MEASURE( 1.000000000000000082E-05 ), #245, 'distance_accuracy_value', 'NONE');
#34 = EDGE_CURVE ( 'NONE', #46, #284, #138, .T. ) ;
#35 = DIRECTION ( 'NONE',  ( 0.0000000000000000000, 0.0000000000000000000, 1.000000000000000000 ) ) ;
#36 = FACE_OUTER_BOUND ( 'NONE', #186, .T. ) ;
#37 = VECTOR ( 'NONE', #292, 1000.000000000000000 ) ;
#38 = DIRECTION ( 'NONE',  ( 0.0000000000000000000, 0.0000000000000000000, 1.000000000000000000 ) ) ;
#39 = AXIS2_PLACEMENT_3D ( 'NONE', #247, #313, #105 ) ;
#40 = DIRECTION ( 'NONE',  ( -1.000000000000000000, 0.0000000000000000000, -0.0000000000000000000 ) ) ;
#41 = CARTESIAN_POINT ( 'NONE',  ( 450.0000000000000000, -0.7499999999999986677, -10.00000000000000000 ) ) ;
#42 = CARTESIAN_POINT ( 'NONE',  ( 450.0000000000000000, 2.000000000000001332, -10.00000000000000000 ) ) ;
#43 = EDGE_CURVE ( 'NONE', #102, #85, #132, .T. ) ;
#44 = VERTEX_POINT ( 'NONE', #114 ) ;
#45 = DIRECTION ( 'NONE',  ( 0.0000000000000000000, -0.0000000000000000000, -1.000000000000000000 ) ) ;
#46 = VERTEX_POINT ( 'NONE', #296 ) ;
#47 = FILL_AREA_STYLE_COLOUR ( '', #316 ) ;
#48 = DIRECTION ( 'NONE',  ( 0.0000000000000000000, 0.0000000000000000000, 1.000000000000000000 ) ) ;
#49 = CARTESIAN_POINT ( 'NONE',  ( 450.0000000000000000, -0.7499999999999986677, -10.00000000000000000 ) ) ;
#50 = SURFACE_STYLE_FILL_AREA ( #171 ) ;
#51 = ORIENTED_EDGE ( 'NONE', *, *, #215, .T. ) ;
#52 = CARTESIAN_POINT ( 'NONE',  ( 450.0000000000000000, -0.7499999999999986677, -10.00000000000000000 ) ) ;
#53 = EDGE_CURVE ( 'NONE', #44, #222, #120, .T. ) ;
#54 = CARTESIAN_POINT ( 'NONE',  ( 450.0000000000000000, -1.999999999999998668, 0.0000000000000000000 ) ) ;
#55 = ADVANCED_FACE ( 'NONE', ( #282 ), #262, .F. ) ;
#56 = FACE_OUTER_BOUND ( 'NONE', #198, .T. ) ;
#57 = CARTESIAN_POINT ( 'NONE',  ( -6.000000000000000000, -1.999999999999998668, -10.00000000000000000 ) ) ;
#58 = EDGE_CURVE ( 'NONE', #150, #231, #324, .T. ) ;
#59 = VECTOR ( 'NONE', #290, 1000.000000000000000 ) ;
#60 = ORIENTED_EDGE ( 'NONE', *, *, #148, .T. ) ;
#61 = CARTESIAN_POINT ( 'NONE',  ( 450.0000000000000000, 0.7500000000000013323, -22.00000000000000000 ) ) ;
#62 = ORIENTED_EDGE ( 'NONE', *, *, #301, .F. ) ;
#63 = VECTOR ( 'NONE', #28, 1000.000000000000000 ) ;
#64 = EDGE_CURVE ( 'NONE', #219, #251, #259, .T. ) ;
#65 =( GEOMETRIC_REPRESENTATION_CONTEXT ( 3 ) GLOBAL_UNCERTAINTY_ASSIGNED_CONTEXT ( ( #322 ) ) GLOBAL_UNIT_ASSIGNED_CONTEXT ( ( #164, #10, #213 ) ) REPRESENTATION_CONTEXT ( 'NONE', 'WORKASPACE' ) );
#66 = VECTOR ( 'NONE', #100, 1000.000000000000000 ) ;
#67 = CARTESIAN_POINT ( 'NONE',  ( 450.0000000000000000, 0.7500000000000013323, -22.00000000000000000 ) ) ;
#68 = EDGE_CURVE ( 'NONE', #85, #150, #190, .T. ) ;
#69 = FACE_OUTER_BOUND ( 'NONE', #308, .T. ) ;
#70 = EDGE_CURVE ( 'NONE', #216, #44, #207, .T. ) ;
#71 = LINE ( 'NONE', #200, #63 ) ;
#72 = SURFACE_SIDE_STYLE ('',( #255 ) ) ;
#73 = FILL_AREA_STYLE_COLOUR ( '', #113 ) ;
#74 = DIRECTION ( 'NONE',  ( 0.0000000000000000000, 1.000000000000000000, 0.0000000000000000000 ) ) ;
#75 = CARTESIAN_POINT ( 'NONE',  ( 450.0000000000000000, -0.7499999999999986677, -10.00000000000000000 ) ) ;
#76 = PRESENTATION_LAYER_ASSIGNMENT (  '', '', ( #331 ) ) ;
#77 = EDGE_CURVE ( 'NONE', #93, #222, #261, .T. ) ;
#78 = LINE ( 'NONE', #123, #125 ) ;
#79 = AXIS2_PLACEMENT_3D ( 'NONE', #173, #19, #194 ) ;
#80 = CARTESIAN_POINT ( 'NONE',  ( 450.0000000000000000, -1.999999999999998668, -10.00000000000000000 ) ) ;
#81 = EDGE_CURVE ( 'NONE', #87, #122, #204, .T. ) ;
#82 = ORIENTED_EDGE ( 'NONE', *, *, #291, .F. ) ;
#83 = ORIENTED_EDGE ( 'NONE', *, *, #64, .T. ) ;
#84 = FACE_OUTER_BOUND ( 'NONE', #124, .T. ) ;
#85 = VERTEX_POINT ( 'NONE', #52 ) ;
#86 = PLANE ( 'NONE',  #283 ) ;
#87 = VERTEX_POINT ( 'NONE', #42 ) ;
#88 = LINE ( 'NONE', #61, #256 ) ;
#89 = CARTESIAN_POINT ( 'NONE',  ( -6.000000000000000000, -0.7499999999999986677, -10.00000000000000000 ) ) ;
#90 = PRESENTATION_STYLE_ASSIGNMENT (( #272 ) ) ;
#91 = LINE ( 'NONE', #248, #66 ) ;
#92 = VERTEX_POINT ( 'NONE', #223 ) ;
#93 = VERTEX_POINT ( 'NONE', #54 ) ;
#94 = DIRECTION ( 'NONE',  ( 0.0000000000000000000, 0.0000000000000000000, 1.000000000000000000 ) ) ;
#95 = ORIENTED_EDGE ( 'NONE', *, *, #108, .F. ) ;
#96 = VECTOR ( 'NONE', #74, 1000.000000000000000 ) ;
#97 = STYLED_ITEM ( 'NONE', ( #217 ), #233 ) ;
#98 = ORIENTED_EDGE ( 'NONE', *, *, #334, .F. ) ;
#99 = DIRECTION ( 'NONE',  ( -1.000000000000000000, -0.0000000000000000000, -0.0000000000000000000 ) ) ;
#100 = DIRECTION ( 'NONE',  ( -0.0000000000000000000, 1.000000000000000000, -0.0000000000000000000 ) ) ;
#101 = ORIENTED_EDGE ( 'NONE', *, *, #23, .T. ) ;
#102 = VERTEX_POINT ( 'NONE', #195 ) ;
#103 = DIRECTION ( 'NONE',  ( -1.000000000000000000, -0.0000000000000000000, -0.0000000000000000000 ) ) ;
#104 = DIRECTION ( 'NONE',  ( -1.000000000000000000, -0.0000000000000000000, -0.0000000000000000000 ) ) ;
#105 = DIRECTION ( 'NONE',  ( 1.000000000000000000, 0.0000000000000000000, 0.0000000000000000000 ) ) ;
#106 = ORIENTED_EDGE ( 'NONE', *, *, #68, .T. ) ;
#107 = ORIENTED_EDGE ( 'NONE', *, *, #15, .T. ) ;
#108 = EDGE_CURVE ( 'NONE', #122, #93, #78, .T. ) ;
#109 = ORIENTED_EDGE ( 'NONE', *, *, #77, .F. ) ;
#110 = CARTESIAN_POINT ( 'NONE',  ( 450.0000000000000000, -0.7499999999999986677, -22.00000000000000000 ) ) ;
#111 = CARTESIAN_POINT ( 'NONE',  ( 450.0000000000000000, -0.7499999999999986677, -10.00000000000000000 ) ) ;
#112 = EDGE_LOOP ( 'NONE', ( #60, #101, #82, #157 ) ) ;
#113 = COLOUR_RGB ( '',0.7921568627450980005, 0.8196078431372548767, 0.9333333333333333481 ) ;
#114 = CARTESIAN_POINT ( 'NONE',  ( -6.000000000000000000, 2.000000000000001332, 0.0000000000000000000 ) ) ;
#115 = CARTESIAN_POINT ( 'NONE',  ( 450.0000000000000000, 2.000000000000001332, -10.00000000000000000 ) ) ;
#116 = DIRECTION ( 'NONE',  ( -1.000000000000000000, -0.0000000000000000000, -0.0000000000000000000 ) ) ;
#117 = DIRECTION ( 'NONE',  ( 1.000000000000000000, 0.0000000000000000000, 0.0000000000000000000 ) ) ;
#118 = FACE_OUTER_BOUND ( 'NONE', #112, .T. ) ;
#119 = PLANE ( 'NONE',  #2 ) ;
#120 = LINE ( 'NONE', #209, #329 ) ;
#121 = ORIENTED_EDGE ( 'NONE', *, *, #64, .F. ) ;
#122 = VERTEX_POINT ( 'NONE', #147 ) ;
#123 = CARTESIAN_POINT ( 'NONE',  ( 450.0000000000000000, 2.000000000000001332, 0.0000000000000000000 ) ) ;
#124 = EDGE_LOOP ( 'NONE', ( #169, #236, #249, #181 ) ) ;
#125 = VECTOR ( 'NONE', #307, 1000.000000000000000 ) ;
#126 = ADVANCED_FACE ( 'NONE', ( #270 ), #128, .F. ) ;
#127 = PRODUCT ( '191787', '191787', '', ( #166 ) ) ;
#128 = PLANE ( 'NONE',  #79 ) ;
#129 = ORIENTED_EDGE ( 'NONE', *, *, #141, .T. ) ;
#130 = CARTESIAN_POINT ( 'NONE',  ( 450.0000000000000000, -0.7499999999999986677, -22.00000000000000000 ) ) ;
#131 = PRODUCT_DEFINITION_FORMATION_WITH_SPECIFIED_SOURCE ( 'ANY', '', #127, .NOT_KNOWN. ) ;
#132 = LINE ( 'NONE', #75, #228 ) ;
#133 = CARTESIAN_POINT ( 'NONE',  ( -6.000000000000000000, -0.7499999999999986677, -10.00000000000000000 ) ) ;
#134 = ORIENTED_EDGE ( 'NONE', *, *, #70, .T. ) ;
#135 = VECTOR ( 'NONE', #201, 1000.000000000000000 ) ;
#136 = CARTESIAN_POINT ( 'NONE',  ( 450.0000000000000000, 0.7500000000000013323, -10.00000000000000000 ) ) ;
#137 = ORIENTED_EDGE ( 'NONE', *, *, #34, .T. ) ;
#138 = LINE ( 'NONE', #9, #276 ) ;
#139 = AXIS2_PLACEMENT_3D ( 'NONE', #212, #7, #40 ) ;
#140 = APPLICATION_PROTOCOL_DEFINITION ( 'draft international standard', 'automotive_design', 1998, #13 ) ;
#141 = EDGE_CURVE ( 'NONE', #251, #46, #266, .T. ) ;
#142 = CARTESIAN_POINT ( 'NONE',  ( -6.000000000000000000, 0.7500000000000013323, -10.00000000000000000 ) ) ;
#143 = ORIENTED_EDGE ( 'NONE', *, *, #34, .F. ) ;
#144 = VECTOR ( 'NONE', #116, 1000.000000000000000 ) ;
#145 = LINE ( 'NONE', #136, #156 ) ;
#146 = DIRECTION ( 'NONE',  ( -0.0000000000000000000, 1.000000000000000000, -0.0000000000000000000 ) ) ;
#147 = CARTESIAN_POINT ( 'NONE',  ( 450.0000000000000000, 2.000000000000001332, 0.0000000000000000000 ) ) ;
#148 = EDGE_CURVE ( 'NONE', #102, #229, #3, .T. ) ;
#149 = LINE ( 'NONE', #155, #135 ) ;
#150 = VERTEX_POINT ( 'NONE', #130 ) ;
#151 = ADVANCED_FACE ( 'NONE', ( #69 ), #310, .F. ) ;
#152 = VECTOR ( 'NONE', #146, 1000.000000000000000 ) ;
#153 = VECTOR ( 'NONE', #320, 1000.000000000000000 ) ;
#154 = ORIENTED_EDGE ( 'NONE', *, *, #58, .T. ) ;
#155 = CARTESIAN_POINT ( 'NONE',  ( 450.0000000000000000, -1.999999999999998668, -10.00000000000000000 ) ) ;
#156 = VECTOR ( 'NONE', #234, 1000.000000000000000 ) ;
#157 = ORIENTED_EDGE ( 'NONE', *, *, #43, .F. ) ;
#158 = ORIENTED_EDGE ( 'NONE', *, *, #81, .T. ) ;
#159 = LINE ( 'NONE', #269, #152 ) ;
#160 = PLANE ( 'NONE',  #39 ) ;
#161 = PRESENTATION_LAYER_ASSIGNMENT (  '', '', ( #97 ) ) ;
#162 = CARTESIAN_POINT ( 'NONE',  ( 450.0000000000000000, 2.000000000000001332, -10.00000000000000000 ) ) ;
#163 = DIRECTION ( 'NONE',  ( 0.0000000000000000000, -1.000000000000000000, 0.0000000000000000000 ) ) ;
#164 =( LENGTH_UNIT ( ) NAMED_UNIT ( * ) SI_UNIT ( .MILLI., .METRE. ) );
#165 = CLOSED_SHELL ( 'NONE', ( #20, #250, #252, #302, #278, #55, #126, #306, #151, #246 ) ) ;
#166 = PRODUCT_CONTEXT ( 'NONE', #13, 'mechanical' ) ;
#167 = DIRECTION ( 'NONE',  ( -0.0000000000000000000, -0.0000000000000000000, -1.000000000000000000 ) ) ;
#168 =( NAMED_UNIT ( * ) SI_UNIT ( $, .STERADIAN. ) SOLID_ANGLE_UNIT ( ) );
#169 = ORIENTED_EDGE ( 'NONE', *, *, #77, .T. ) ;
#170 = UNCERTAINTY_MEASURE_WITH_UNIT (LENGTH_MEASURE( 1.000000000000000082E-05 ), #21, 'distance_accuracy_value', 'NONE');
#171 = FILL_AREA_STYLE ('',( #73 ) ) ;
#172 = VECTOR ( 'NONE', #167, 1000.000000000000000 ) ;
#173 = CARTESIAN_POINT ( 'NONE',  ( 450.0000000000000000, 2.000000000000001332, -10.00000000000000000 ) ) ;
#174 = ORIENTED_EDGE ( 'NONE', *, *, #53, .T. ) ;
#175 = EDGE_CURVE ( 'NONE', #231, #46, #25, .T. ) ;
#176 = DIRECTION ( 'NONE',  ( -1.000000000000000000, -0.0000000000000000000, -0.0000000000000000000 ) ) ;
#177 = DIRECTION ( 'NONE',  ( -0.0000000000000000000, 1.000000000000000000, -0.0000000000000000000 ) ) ;
#178 = ORIENTED_EDGE ( 'NONE', *, *, #141, .F. ) ;
#179 = ORIENTED_EDGE ( 'NONE', *, *, #334, .T. ) ;
#180 = FACE_OUTER_BOUND ( 'NONE', #187, .T. ) ;
#181 = ORIENTED_EDGE ( 'NONE', *, *, #215, .F. ) ;
#182 = CARTESIAN_POINT ( 'NONE',  ( 450.0000000000000000, 0.7500000000000013323, -22.00000000000000000 ) ) ;
#183 = SHAPE_DEFINITION_REPRESENTATION ( #281, #328 ) ;
#184 = ORIENTED_EDGE ( 'NONE', *, *, #15, .F. ) ;
#185 = EDGE_CURVE ( 'NONE', #87, #216, #289, .T. ) ;
#186 = EDGE_LOOP ( 'NONE', ( #327, #129, #305, #288 ) ) ;
#187 = EDGE_LOOP ( 'NONE', ( #315, #224, #62, #143, #178, #121, #12, #237 ) ) ;
#188 = DIRECTION ( 'NONE',  ( 0.0000000000000000000, -0.0000000000000000000, -1.000000000000000000 ) ) ;
#189 = ORIENTED_EDGE ( 'NONE', *, *, #68, .F. ) ;
#190 = LINE ( 'NONE', #111, #37 ) ;
#191 = MECHANICAL_DESIGN_GEOMETRIC_PRESENTATION_REPRESENTATION (  '', ( #97 ), #26 ) ;
#192 = DIRECTION ( 'NONE',  ( 0.0000000000000000000, -1.000000000000000000, 0.0000000000000000000 ) ) ;
#193 = VECTOR ( 'NONE', #103, 1000.000000000000000 ) ;
#194 = DIRECTION ( 'NONE',  ( 1.000000000000000000, 0.0000000000000000000, 0.0000000000000000000 ) ) ;
#195 = CARTESIAN_POINT ( 'NONE',  ( 450.0000000000000000, -1.999999999999998668, -10.00000000000000000 ) ) ;
#196 = LINE ( 'NONE', #258, #317 ) ;
#197 = SURFACE_STYLE_USAGE ( .BOTH. , #22 ) ;
#198 = EDGE_LOOP ( 'NONE', ( #241, #134, #98, #243 ) ) ;
#199 = EDGE_LOOP ( 'NONE', ( #107, #300, #203, #29 ) ) ;
#200 = CARTESIAN_POINT ( 'NONE',  ( 450.0000000000000000, 2.000000000000001332, -10.00000000000000000 ) ) ;
#201 = DIRECTION ( 'NONE',  ( -0.0000000000000000000, -0.0000000000000000000, -1.000000000000000000 ) ) ;
#202 = CARTESIAN_POINT ( 'NONE',  ( -6.000000000000000000, 2.000000000000001332, -10.00000000000000000 ) ) ;
#203 = ORIENTED_EDGE ( 'NONE', *, *, #185, .F. ) ;
#204 = LINE ( 'NONE', #162, #31 ) ;
#205 = AXIS2_PLACEMENT_3D ( 'NONE', #41, #325, #240 ) ;
#206 = LINE ( 'NONE', #321, #144 ) ;
#207 = LINE ( 'NONE', #319, #326 ) ;
#208 = AXIS2_PLACEMENT_3D ( 'NONE', #323, #94, #117 ) ;
#209 = CARTESIAN_POINT ( 'NONE',  ( -6.000000000000000000, 2.000000000000001332, 0.0000000000000000000 ) ) ;
#210 = DIRECTION ( 'NONE',  ( 0.0000000000000000000, 0.0000000000000000000, 1.000000000000000000 ) ) ;
#211 = EDGE_LOOP ( 'NONE', ( #244, #137, #184, #239 ) ) ;
#212 = CARTESIAN_POINT ( 'NONE',  ( 450.0000000000000000, 2.000000000000001332, 0.0000000000000000000 ) ) ;
#213 =( NAMED_UNIT ( * ) SI_UNIT ( $, .STERADIAN. ) SOLID_ANGLE_UNIT ( ) );
#214 = FILL_AREA_STYLE ('',( #47 ) ) ;
#215 = EDGE_CURVE ( 'NONE', #93, #102, #149, .T. ) ;
#216 = VERTEX_POINT ( 'NONE', #202 ) ;
#217 = PRESENTATION_STYLE_ASSIGNMENT (( #197 ) ) ;
#218 =( NAMED_UNIT ( * ) PLANE_ANGLE_UNIT ( ) SI_UNIT ( $, .RADIAN. ) );
#219 = VERTEX_POINT ( 'NONE', #133 ) ;
#220 = CARTESIAN_POINT ( 'NONE',  ( 450.0000000000000000, 0.7500000000000013323, -22.00000000000000000 ) ) ;
#221 = PRODUCT_DEFINITION ( 'UNKNOWN', '', #131, #24 ) ;
#222 = VERTEX_POINT ( 'NONE', #285 ) ;
#223 = CARTESIAN_POINT ( 'NONE',  ( 450.0000000000000000, 0.7500000000000013323, -10.00000000000000000 ) ) ;
#224 = ORIENTED_EDGE ( 'NONE', *, *, #70, .F. ) ;
#225 = LINE ( 'NONE', #49, #1 ) ;
#226 = EDGE_CURVE ( 'NONE', #231, #92, #88, .T. ) ;
#227 = CARTESIAN_POINT ( 'NONE',  ( 450.0000000000000000, 0.0000000000000000000, 0.0000000000000000000 ) ) ;
#228 = VECTOR ( 'NONE', #177, 1000.000000000000000 ) ;
#229 = VERTEX_POINT ( 'NONE', #32 ) ;
#230 = EDGE_CURVE ( 'NONE', #150, #251, #196, .T. ) ;
#231 = VERTEX_POINT ( 'NONE', #220 ) ;
#232 = DIRECTION ( 'NONE',  ( 0.0000000000000000000, 0.0000000000000000000, 1.000000000000000000 ) ) ;
#233 = MANIFOLD_SOLID_BREP ( 'Aufsatz-Linear austragen1', #165 ) ;
#234 = DIRECTION ( 'NONE',  ( -1.000000000000000000, -0.0000000000000000000, -0.0000000000000000000 ) ) ;
#235 = DIRECTION ( 'NONE',  ( 0.0000000000000000000, 1.000000000000000000, 0.0000000000000000000 ) ) ;
#236 = ORIENTED_EDGE ( 'NONE', *, *, #273, .T. ) ;
#237 = ORIENTED_EDGE ( 'NONE', *, *, #273, .F. ) ;
#238 = CARTESIAN_POINT ( 'NONE',  ( 450.0000000000000000, -1.999999999999998668, 0.0000000000000000000 ) ) ;
#239 = ORIENTED_EDGE ( 'NONE', *, *, #226, .F. ) ;
#240 = DIRECTION ( 'NONE',  ( 0.0000000000000000000, -0.0000000000000000000, 1.000000000000000000 ) ) ;
#241 = ORIENTED_EDGE ( 'NONE', *, *, #185, .T. ) ;
#242 = EDGE_LOOP ( 'NONE', ( #179, #174, #109, #95 ) ) ;
#243 = ORIENTED_EDGE ( 'NONE', *, *, #81, .F. ) ;
#244 = ORIENTED_EDGE ( 'NONE', *, *, #175, .T. ) ;
#245 =( LENGTH_UNIT ( ) NAMED_UNIT ( * ) SI_UNIT ( .MILLI., .METRE. ) );
#246 = ADVANCED_FACE ( 'NONE', ( #180 ), #309, .T. ) ;
#247 = CARTESIAN_POINT ( 'NONE',  ( 450.0000000000000000, -0.7499999999999986677, -10.00000000000000000 ) ) ;
#248 = CARTESIAN_POINT ( 'NONE',  ( -6.000000000000000000, -0.7499999999999986677, -10.00000000000000000 ) ) ;
#249 = ORIENTED_EDGE ( 'NONE', *, *, #148, .F. ) ;
#250 = ADVANCED_FACE ( 'NONE', ( #84 ), #314, .F. ) ;
#251 = VERTEX_POINT ( 'NONE', #30 ) ;
#252 = ADVANCED_FACE ( 'NONE', ( #118 ), #160, .F. ) ;
#253 = AXIS2_PLACEMENT_3D ( 'NONE', #67, #163, #188 ) ;
#254 = DIRECTION ( 'NONE',  ( -1.000000000000000000, 0.0000000000000000000, 0.0000000000000000000 ) ) ;
#255 = SURFACE_STYLE_FILL_AREA ( #214 ) ;
#256 = VECTOR ( 'NONE', #232, 1000.000000000000000 ) ;
#257 = CARTESIAN_POINT ( 'NONE',  ( 450.0000000000000000, -1.999999999999998668, -10.00000000000000000 ) ) ;
#258 = CARTESIAN_POINT ( 'NONE',  ( 450.0000000000000000, -0.7499999999999986677, -22.00000000000000000 ) ) ;
#259 = LINE ( 'NONE', #89, #153 ) ;
#260 = ORIENTED_EDGE ( 'NONE', *, *, #226, .T. ) ;
#261 = LINE ( 'NONE', #238, #59 ) ;
#262 = PLANE ( 'NONE',  #253 ) ;
#263 = ORIENTED_EDGE ( 'NONE', *, *, #230, .F. ) ;
#264 = AXIS2_PLACEMENT_3D ( 'NONE', #80, #312, #332 ) ;
#265 = PLANE ( 'NONE',  #139 ) ;
#266 = LINE ( 'NONE', #280, #96 ) ;
#267 = EDGE_CURVE ( 'NONE', #92, #87, #71, .T. ) ;
#268 = PLANE ( 'NONE',  #205 ) ;
#269 = CARTESIAN_POINT ( 'NONE',  ( -6.000000000000000000, 2.000000000000001332, -10.00000000000000000 ) ) ;
#270 = FACE_OUTER_BOUND ( 'NONE', #199, .T. ) ;
#271 = ORIENTED_EDGE ( 'NONE', *, *, #108, .T. ) ;
#272 = SURFACE_STYLE_USAGE ( .BOTH. , #72 ) ;
#273 = EDGE_CURVE ( 'NONE', #222, #229, #298, .T. ) ;
#274 = DIRECTION ( 'NONE',  ( 0.0000000000000000000, 0.0000000000000000000, 1.000000000000000000 ) ) ;
#275 = DIRECTION ( 'NONE',  ( -1.000000000000000000, 0.0000000000000000000, 0.0000000000000000000 ) ) ;
#276 = VECTOR ( 'NONE', #35, 1000.000000000000000 ) ;
#277 =( NAMED_UNIT ( * ) SI_UNIT ( $, .STERADIAN. ) SOLID_ANGLE_UNIT ( ) );
#278 = ADVANCED_FACE ( 'NONE', ( #36 ), #86, .F. ) ;
#279 =( GEOMETRIC_REPRESENTATION_CONTEXT ( 3 ) GLOBAL_UNCERTAINTY_ASSIGNED_CONTEXT ( ( #33 ) ) GLOBAL_UNIT_ASSIGNED_CONTEXT ( ( #245, #11, #168 ) ) REPRESENTATION_CONTEXT ( 'NONE', 'WORKASPACE' ) );
#280 = CARTESIAN_POINT ( 'NONE',  ( -6.000000000000000000, -0.7499999999999986677, -22.00000000000000000 ) ) ;
#281 = PRODUCT_DEFINITION_SHAPE ( 'NONE', 'NONE',  #221 ) ;
#282 = FACE_OUTER_BOUND ( 'NONE', #211, .T. ) ;
#283 = AXIS2_PLACEMENT_3D ( 'NONE', #110, #274, #4 ) ;
#284 = VERTEX_POINT ( 'NONE', #142 ) ;
#285 = CARTESIAN_POINT ( 'NONE',  ( -6.000000000000000000, -1.999999999999998668, 0.0000000000000000000 ) ) ;
#286 = AXIS2_PLACEMENT_3D ( 'NONE', #227, #254, #27 ) ;
#287 = ORIENTED_EDGE ( 'NONE', *, *, #43, .T. ) ;
#288 = ORIENTED_EDGE ( 'NONE', *, *, #58, .F. ) ;
#289 = LINE ( 'NONE', #330, #311 ) ;
#290 = DIRECTION ( 'NONE',  ( -1.000000000000000000, -0.0000000000000000000, -0.0000000000000000000 ) ) ;
#291 = EDGE_CURVE ( 'NONE', #85, #219, #225, .T. ) ;
#292 = DIRECTION ( 'NONE',  ( 0.0000000000000000000, 0.0000000000000000000, -1.000000000000000000 ) ) ;
#293 = FACE_OUTER_BOUND ( 'NONE', #295, .T. ) ;
#294 = VECTOR ( 'NONE', #176, 1000.000000000000000 ) ;
#295 = EDGE_LOOP ( 'NONE', ( #6, #83, #263, #189 ) ) ;
#296 = CARTESIAN_POINT ( 'NONE',  ( -6.000000000000000000, 0.7500000000000013323, -22.00000000000000000 ) ) ;
#297 = PRODUCT_RELATED_PRODUCT_CATEGORY ( 'part', '', ( #127 ) ) ;
#298 = LINE ( 'NONE', #57, #172 ) ;
#299 = DIRECTION ( 'NONE',  ( 0.0000000000000000000, -1.000000000000000000, 0.0000000000000000000 ) ) ;
#300 = ORIENTED_EDGE ( 'NONE', *, *, #301, .T. ) ;
#301 = EDGE_CURVE ( 'NONE', #284, #216, #159, .T. ) ;
#302 = ADVANCED_FACE ( 'NONE', ( #293 ), #268, .F. ) ;
#303 = DIRECTION ( 'NONE',  ( -1.000000000000000000, -0.0000000000000000000, -0.0000000000000000000 ) ) ;
#304 = AXIS2_PLACEMENT_3D ( 'NONE', #17, #275, #48 ) ;
#305 = ORIENTED_EDGE ( 'NONE', *, *, #175, .F. ) ;
#306 = ADVANCED_FACE ( 'NONE', ( #56 ), #119, .F. ) ;
#307 = DIRECTION ( 'NONE',  ( 0.0000000000000000000, -1.000000000000000000, 0.0000000000000000000 ) ) ;
#308 = EDGE_LOOP ( 'NONE', ( #271, #51, #287, #106, #154, #260, #8, #158 ) ) ;
#309 = PLANE ( 'NONE',  #304 ) ;
#310 = PLANE ( 'NONE',  #286 ) ;
#311 = VECTOR ( 'NONE', #104, 1000.000000000000000 ) ;
#312 = DIRECTION ( 'NONE',  ( 0.0000000000000000000, 1.000000000000000000, 0.0000000000000000000 ) ) ;
#313 = DIRECTION ( 'NONE',  ( -0.0000000000000000000, 0.0000000000000000000, 1.000000000000000000 ) ) ;
#314 = PLANE ( 'NONE',  #264 ) ;
#315 = ORIENTED_EDGE ( 'NONE', *, *, #53, .F. ) ;
#316 = COLOUR_RGB ( '',0.7921568627450980005, 0.8196078431372548767, 0.9333333333333333481 ) ;
#317 = VECTOR ( 'NONE', #99, 1000.000000000000000 ) ;
#318 = MECHANICAL_DESIGN_GEOMETRIC_PRESENTATION_REPRESENTATION (  '', ( #331 ), #279 ) ;
#319 = CARTESIAN_POINT ( 'NONE',  ( -6.000000000000000000, 2.000000000000001332, -10.00000000000000000 ) ) ;
#320 = DIRECTION ( 'NONE',  ( 0.0000000000000000000, 0.0000000000000000000, -1.000000000000000000 ) ) ;
#321 = CARTESIAN_POINT ( 'NONE',  ( 450.0000000000000000, 2.000000000000001332, 0.0000000000000000000 ) ) ;
#322 = UNCERTAINTY_MEASURE_WITH_UNIT (LENGTH_MEASURE( 1.000000000000000082E-05 ), #164, 'distance_accuracy_value', 'NONE');
#323 = CARTESIAN_POINT ( 'NONE',  ( 0.0000000000000000000, 0.0000000000000000000, 0.0000000000000000000 ) ) ;
#324 = LINE ( 'NONE', #5, #14 ) ;
#325 = DIRECTION ( 'NONE',  ( -0.0000000000000000000, 1.000000000000000000, 0.0000000000000000000 ) ) ;
#326 = VECTOR ( 'NONE', #38, 1000.000000000000000 ) ;
#327 = ORIENTED_EDGE ( 'NONE', *, *, #230, .T. ) ;
#328 = ADVANCED_BREP_SHAPE_REPRESENTATION ( '191787', ( #233, #208 ), #65 ) ;
#329 = VECTOR ( 'NONE', #192, 1000.000000000000000 ) ;
#330 = CARTESIAN_POINT ( 'NONE',  ( 450.0000000000000000, 2.000000000000001332, -10.00000000000000000 ) ) ;
#331 = STYLED_ITEM ( 'NONE', ( #90 ), #328 ) ;
#332 = DIRECTION ( 'NONE',  ( 0.0000000000000000000, -0.0000000000000000000, 1.000000000000000000 ) ) ;
#333 = FACE_OUTER_BOUND ( 'NONE', #242, .T. ) ;
#334 = EDGE_CURVE ( 'NONE', #122, #44, #206, .T. ) ;
ENDSEC;
END-ISO-10303-21;
