ISO-10303-21;
HEADER;
FILE_DESCRIPTION (( 'STEP AP214' ),
    '1' );
FILE_NAME ('191786.STEP',
    '2020-02-13T11:15:32',
    ( '' ),
    ( '' ),
    'SwSTEP 2.0',
    'SolidWorks 2018',
    '' );
FILE_SCHEMA (( 'AUTOMOTIVE_DESIGN' ));
ENDSEC;

DATA;
#1 = ORIENTED_EDGE ( 'NONE', *, *, #19, .F. ) ;
#2 = PRESENTATION_STYLE_ASSIGNMENT (( #6 ) ) ;
#3 = SURFACE_STYLE_USAGE ( .BOTH. , #112 ) ;
#4 = EDGE_CURVE ( 'NONE', #257, #115, #170, .T. ) ;
#5 = ADVANCED_FACE ( 'NONE', ( #248 ), #42, .T. ) ;
#6 = SURFACE_STYLE_USAGE ( .BOTH. , #136 ) ;
#7 = LINE ( 'NONE', #119, #226 ) ;
#8 = PLANE ( 'NONE',  #40 ) ;
#9 = VECTOR ( 'NONE', #243, 1000.000000000000000 ) ;
#10 =( NAMED_UNIT ( * ) PLANE_ANGLE_UNIT ( ) SI_UNIT ( $, .RADIAN. ) );
#11 = CARTESIAN_POINT ( 'NONE',  ( -6.000000000000000000, -0.7499999999999986677, -10.00000000000000000 ) ) ;
#12 = DIRECTION ( 'NONE',  ( -1.000000000000000000, 0.0000000000000000000, 0.0000000000000000000 ) ) ;
#13 = ORIENTED_EDGE ( 'NONE', *, *, #19, .T. ) ;
#14 = VECTOR ( 'NONE', #210, 1000.000000000000000 ) ;
#15 = EDGE_CURVE ( 'NONE', #54, #214, #105, .T. ) ;
#16 = DIRECTION ( 'NONE',  ( 0.0000000000000000000, 0.0000000000000000000, 1.000000000000000000 ) ) ;
#17 = PLANE ( 'NONE',  #48 ) ;
#18 = LINE ( 'NONE', #132, #76 ) ;
#19 = EDGE_CURVE ( 'NONE', #115, #54, #178, .T. ) ;
#20 = ORIENTED_EDGE ( 'NONE', *, *, #172, .T. ) ;
#21 = LINE ( 'NONE', #265, #285 ) ;
#22 = EDGE_CURVE ( 'NONE', #71, #327, #277, .T. ) ;
#23 = VECTOR ( 'NONE', #217, 1000.000000000000000 ) ;
#24 = VECTOR ( 'NONE', #91, 1000.000000000000000 ) ;
#25 = CARTESIAN_POINT ( 'NONE',  ( 438.0000000000000000, 2.000000000000001332, -10.00000000000000000 ) ) ;
#26 = ORIENTED_EDGE ( 'NONE', *, *, #202, .T. ) ;
#27 = DIRECTION ( 'NONE',  ( -1.000000000000000000, 0.0000000000000000000, -0.0000000000000000000 ) ) ;
#28 = PRESENTATION_LAYER_ASSIGNMENT (  '', '', ( #177 ) ) ;
#29 = EDGE_CURVE ( 'NONE', #146, #274, #33, .T. ) ;
#30 = DIRECTION ( 'NONE',  ( -1.000000000000000000, 0.0000000000000000000, 0.0000000000000000000 ) ) ;
#31 = DIRECTION ( 'NONE',  ( 0.0000000000000000000, 0.0000000000000000000, 1.000000000000000000 ) ) ;
#32 = EDGE_LOOP ( 'NONE', ( #26, #250, #1, #166 ) ) ;
#33 = LINE ( 'NONE', #244, #303 ) ;
#34 = LINE ( 'NONE', #315, #156 ) ;
#35 = CARTESIAN_POINT ( 'NONE',  ( 438.0000000000000000, 2.000000000000001332, 0.0000000000000000000 ) ) ;
#36 = DIRECTION ( 'NONE',  ( 0.0000000000000000000, -1.000000000000000000, 0.0000000000000000000 ) ) ;
#37 = DIRECTION ( 'NONE',  ( -0.0000000000000000000, 1.000000000000000000, -0.0000000000000000000 ) ) ;
#38 = ORIENTED_EDGE ( 'NONE', *, *, #15, .T. ) ;
#39 = CARTESIAN_POINT ( 'NONE',  ( -6.000000000000000000, -1.999999999999998668, -10.00000000000000000 ) ) ;
#40 = AXIS2_PLACEMENT_3D ( 'NONE', #109, #206, #239 ) ;
#41 = ORIENTED_EDGE ( 'NONE', *, *, #123, .F. ) ;
#42 = PLANE ( 'NONE',  #195 ) ;
#43 = CARTESIAN_POINT ( 'NONE',  ( -6.000000000000000000, 2.000000000000001332, -10.00000000000000000 ) ) ;
#44 =( LENGTH_UNIT ( ) NAMED_UNIT ( * ) SI_UNIT ( .MILLI., .METRE. ) );
#45 = ORIENTED_EDGE ( 'NONE', *, *, #157, .F. ) ;
#46 = LINE ( 'NONE', #83, #180 ) ;
#47 = EDGE_CURVE ( 'NONE', #274, #203, #97, .T. ) ;
#48 = AXIS2_PLACEMENT_3D ( 'NONE', #220, #267, #334 ) ;
#49 = PLANE ( 'NONE',  #230 ) ;
#50 = ORIENTED_EDGE ( 'NONE', *, *, #202, .F. ) ;
#51 = EDGE_LOOP ( 'NONE', ( #253, #284, #168, #264 ) ) ;
#52 = LINE ( 'NONE', #185, #283 ) ;
#53 = DIRECTION ( 'NONE',  ( 0.0000000000000000000, -0.0000000000000000000, -1.000000000000000000 ) ) ;
#54 = VERTEX_POINT ( 'NONE', #246 ) ;
#55 = ADVANCED_FACE ( 'NONE', ( #148 ), #17, .F. ) ;
#56 = CARTESIAN_POINT ( 'NONE',  ( 438.0000000000000000, 0.7500000000000013323, -22.00000000000000000 ) ) ;
#57 = DIRECTION ( 'NONE',  ( -1.000000000000000000, -0.0000000000000000000, -0.0000000000000000000 ) ) ;
#58 = ORIENTED_EDGE ( 'NONE', *, *, #22, .F. ) ;
#59 = CARTESIAN_POINT ( 'NONE',  ( -6.000000000000000000, 0.7500000000000013323, -22.00000000000000000 ) ) ;
#60 = DIRECTION ( 'NONE',  ( 0.0000000000000000000, 0.0000000000000000000, 1.000000000000000000 ) ) ;
#61 = PLANE ( 'NONE',  #147 ) ;
#62 = DIRECTION ( 'NONE',  ( 0.0000000000000000000, -0.0000000000000000000, -1.000000000000000000 ) ) ;
#63 = MECHANICAL_DESIGN_GEOMETRIC_PRESENTATION_REPRESENTATION (  '', ( #177 ), #99 ) ;
#64 = EDGE_LOOP ( 'NONE', ( #13, #38, #106, #259 ) ) ;
#65 = DIRECTION ( 'NONE',  ( 1.000000000000000000, 0.0000000000000000000, 0.0000000000000000000 ) ) ;
#66 = DIRECTION ( 'NONE',  ( -0.0000000000000000000, -0.0000000000000000000, -1.000000000000000000 ) ) ;
#67 = CARTESIAN_POINT ( 'NONE',  ( 438.0000000000000000, -0.7499999999999986677, -10.00000000000000000 ) ) ;
#68 = VERTEX_POINT ( 'NONE', #231 ) ;
#69 = DIRECTION ( 'NONE',  ( -1.000000000000000000, -0.0000000000000000000, -0.0000000000000000000 ) ) ;
#70 = VECTOR ( 'NONE', #116, 1000.000000000000000 ) ;
#71 = VERTEX_POINT ( 'NONE', #312 ) ;
#72 = VECTOR ( 'NONE', #137, 1000.000000000000000 ) ;
#73 = ORIENTED_EDGE ( 'NONE', *, *, #29, .T. ) ;
#74 = FACE_OUTER_BOUND ( 'NONE', #138, .T. ) ;
#75 = PLANE ( 'NONE',  #266 ) ;
#76 = VECTOR ( 'NONE', #183, 1000.000000000000000 ) ;
#77 = LINE ( 'NONE', #216, #70 ) ;
#78 = EDGE_LOOP ( 'NONE', ( #20, #235, #41, #96 ) ) ;
#79 = EDGE_LOOP ( 'NONE', ( #242, #194, #58, #45, #310, #281, #188, #129 ) ) ;
#80 = ORIENTED_EDGE ( 'NONE', *, *, #169, .F. ) ;
#81 = COLOUR_RGB ( '',0.7921568627450980005, 0.8196078431372548767, 0.9333333333333333481 ) ;
#82 = CARTESIAN_POINT ( 'NONE',  ( 438.0000000000000000, -1.999999999999998668, -10.00000000000000000 ) ) ;
#83 = CARTESIAN_POINT ( 'NONE',  ( 438.0000000000000000, -0.7499999999999986677, -10.00000000000000000 ) ) ;
#84 = CARTESIAN_POINT ( 'NONE',  ( 438.0000000000000000, -1.999999999999998668, 0.0000000000000000000 ) ) ;
#85 = PRODUCT_CONTEXT ( 'NONE', #294, 'mechanical' ) ;
#86 = LINE ( 'NONE', #181, #98 ) ;
#87 = DIRECTION ( 'NONE',  ( 0.0000000000000000000, 0.0000000000000000000, 1.000000000000000000 ) ) ;
#88 = FILL_AREA_STYLE ('',( #289 ) ) ;
#89 = ADVANCED_FACE ( 'NONE', ( #143 ), #75, .F. ) ;
#90 = DIRECTION ( 'NONE',  ( -0.0000000000000000000, 0.0000000000000000000, 1.000000000000000000 ) ) ;
#91 = DIRECTION ( 'NONE',  ( -0.0000000000000000000, 1.000000000000000000, -0.0000000000000000000 ) ) ;
#92 = CARTESIAN_POINT ( 'NONE',  ( 438.0000000000000000, -0.7499999999999986677, -22.00000000000000000 ) ) ;
#93 = VERTEX_POINT ( 'NONE', #56 ) ;
#94 = VECTOR ( 'NONE', #66, 1000.000000000000000 ) ;
#95 = DIRECTION ( 'NONE',  ( 0.0000000000000000000, -0.0000000000000000000, 1.000000000000000000 ) ) ;
#96 = ORIENTED_EDGE ( 'NONE', *, *, #314, .F. ) ;
#97 = LINE ( 'NONE', #141, #290 ) ;
#98 = VECTOR ( 'NONE', #31, 1000.000000000000000 ) ;
#99 =( GEOMETRIC_REPRESENTATION_CONTEXT ( 3 ) GLOBAL_UNCERTAINTY_ASSIGNED_CONTEXT ( ( #292 ) ) GLOBAL_UNIT_ASSIGNED_CONTEXT ( ( #261, #182, #158 ) ) REPRESENTATION_CONTEXT ( 'NONE', 'WORKASPACE' ) );
#100 = ORIENTED_EDGE ( 'NONE', *, *, #152, .F. ) ;
#101 = ORIENTED_EDGE ( 'NONE', *, *, #280, .T. ) ;
#102 = FACE_OUTER_BOUND ( 'NONE', #311, .T. ) ;
#103 = CARTESIAN_POINT ( 'NONE',  ( 438.0000000000000000, -1.999999999999998668, 0.0000000000000000000 ) ) ;
#104 = AXIS2_PLACEMENT_3D ( 'NONE', #191, #111, #65 ) ;
#105 = LINE ( 'NONE', #211, #72 ) ;
#106 = ORIENTED_EDGE ( 'NONE', *, *, #258, .F. ) ;
#107 = VECTOR ( 'NONE', #16, 1000.000000000000000 ) ;
#108 = PRODUCT_RELATED_PRODUCT_CATEGORY ( 'part', '', ( #225 ) ) ;
#109 = CARTESIAN_POINT ( 'NONE',  ( 438.0000000000000000, -0.7499999999999986677, -10.00000000000000000 ) ) ;
#110 = ORIENTED_EDGE ( 'NONE', *, *, #152, .T. ) ;
#111 = DIRECTION ( 'NONE',  ( 0.0000000000000000000, 0.0000000000000000000, 1.000000000000000000 ) ) ;
#112 = SURFACE_SIDE_STYLE ('',( #149 ) ) ;
#113 = PRESENTATION_LAYER_ASSIGNMENT (  '', '', ( #330 ) ) ;
#114 = DIRECTION ( 'NONE',  ( 0.0000000000000000000, 1.000000000000000000, 0.0000000000000000000 ) ) ;
#115 = VERTEX_POINT ( 'NONE', #287 ) ;
#116 = DIRECTION ( 'NONE',  ( 0.0000000000000000000, -1.000000000000000000, 0.0000000000000000000 ) ) ;
#117 = ORIENTED_EDGE ( 'NONE', *, *, #123, .T. ) ;
#118 = LINE ( 'NONE', #39, #94 ) ;
#119 = CARTESIAN_POINT ( 'NONE',  ( -6.000000000000000000, 2.000000000000001332, 0.0000000000000000000 ) ) ;
#120 = ORIENTED_EDGE ( 'NONE', *, *, #258, .T. ) ;
#121 = MECHANICAL_DESIGN_GEOMETRIC_PRESENTATION_REPRESENTATION (  '', ( #330 ), #219 ) ;
#122 = ORIENTED_EDGE ( 'NONE', *, *, #314, .T. ) ;
#123 = EDGE_CURVE ( 'NONE', #317, #327, #18, .T. ) ;
#124 = DIRECTION ( 'NONE',  ( 0.0000000000000000000, -1.000000000000000000, 0.0000000000000000000 ) ) ;
#125 = ADVANCED_FACE ( 'NONE', ( #282 ), #49, .F. ) ;
#126 = PRODUCT_DEFINITION ( 'UNKNOWN', '', #255, #304 ) ;
#127 = VECTOR ( 'NONE', #324, 1000.000000000000000 ) ;
#128 = UNCERTAINTY_MEASURE_WITH_UNIT (LENGTH_MEASURE( 1.000000000000000082E-05 ), #44, 'distance_accuracy_value', 'NONE');
#129 = ORIENTED_EDGE ( 'NONE', *, *, #309, .F. ) ;
#130 = DIRECTION ( 'NONE',  ( 0.0000000000000000000, 0.0000000000000000000, -1.000000000000000000 ) ) ;
#131 = CARTESIAN_POINT ( 'NONE',  ( 438.0000000000000000, 2.000000000000001332, -10.00000000000000000 ) ) ;
#132 = CARTESIAN_POINT ( 'NONE',  ( 438.0000000000000000, 2.000000000000001332, -10.00000000000000000 ) ) ;
#133 = APPLICATION_PROTOCOL_DEFINITION ( 'draft international standard', 'automotive_design', 1998, #161 ) ;
#134 = DIRECTION ( 'NONE',  ( -1.000000000000000000, -0.0000000000000000000, -0.0000000000000000000 ) ) ;
#135 = CARTESIAN_POINT ( 'NONE',  ( -6.000000000000000000, -1.999999999999998668, -10.00000000000000000 ) ) ;
#136 = SURFACE_SIDE_STYLE ('',( #171 ) ) ;
#137 = DIRECTION ( 'NONE',  ( 0.0000000000000000000, 1.000000000000000000, 0.0000000000000000000 ) ) ;
#138 = EDGE_LOOP ( 'NONE', ( #305, #73, #101, #251, #332, #110, #122, #333 ) ) ;
#139 = VECTOR ( 'NONE', #134, 1000.000000000000000 ) ;
#140 = ADVANCED_BREP_SHAPE_REPRESENTATION ( '191786', ( #197, #104 ), #249 ) ;
#141 = CARTESIAN_POINT ( 'NONE',  ( 438.0000000000000000, -1.999999999999998668, -10.00000000000000000 ) ) ;
#142 = EDGE_CURVE ( 'NONE', #68, #198, #7, .T. ) ;
#143 = FACE_OUTER_BOUND ( 'NONE', #150, .T. ) ;
#144 = VECTOR ( 'NONE', #204, 1000.000000000000000 ) ;
#145 = AXIS2_PLACEMENT_3D ( 'NONE', #187, #90, #189 ) ;
#146 = VERTEX_POINT ( 'NONE', #103 ) ;
#147 = AXIS2_PLACEMENT_3D ( 'NONE', #320, #130, #27 ) ;
#148 = FACE_OUTER_BOUND ( 'NONE', #64, .T. ) ;
#149 = SURFACE_STYLE_FILL_AREA ( #88 ) ;
#150 = EDGE_LOOP ( 'NONE', ( #117, #232, #80, #256 ) ) ;
#151 = LINE ( 'NONE', #322, #293 ) ;
#152 = EDGE_CURVE ( 'NONE', #93, #176, #86, .T. ) ;
#153 = ADVANCED_FACE ( 'NONE', ( #221 ), #8, .F. ) ;
#154 = CARTESIAN_POINT ( 'NONE',  ( 438.0000000000000000, 0.0000000000000000000, 0.0000000000000000000 ) ) ;
#155 = DIRECTION ( 'NONE',  ( 0.0000000000000000000, 0.0000000000000000000, 1.000000000000000000 ) ) ;
#156 = VECTOR ( 'NONE', #60, 1000.000000000000000 ) ;
#157 = EDGE_CURVE ( 'NONE', #214, #71, #34, .T. ) ;
#158 =( NAMED_UNIT ( * ) SI_UNIT ( $, .STERADIAN. ) SOLID_ANGLE_UNIT ( ) );
#159 =( LENGTH_UNIT ( ) NAMED_UNIT ( * ) SI_UNIT ( .MILLI., .METRE. ) );
#160 = CARTESIAN_POINT ( 'NONE',  ( 438.0000000000000000, 0.7500000000000013323, -22.00000000000000000 ) ) ;
#161 = APPLICATION_CONTEXT ( 'automotive_design' ) ;
#162 = CARTESIAN_POINT ( 'NONE',  ( 438.0000000000000000, -0.7499999999999986677, -10.00000000000000000 ) ) ;
#163 = ORIENTED_EDGE ( 'NONE', *, *, #190, .F. ) ;
#164 =( NAMED_UNIT ( * ) PLANE_ANGLE_UNIT ( ) SI_UNIT ( $, .RADIAN. ) );
#165 = CARTESIAN_POINT ( 'NONE',  ( -6.000000000000000000, 2.000000000000001332, -10.00000000000000000 ) ) ;
#166 = ORIENTED_EDGE ( 'NONE', *, *, #4, .F. ) ;
#167 = LINE ( 'NONE', #131, #222 ) ;
#168 = ORIENTED_EDGE ( 'NONE', *, *, #47, .F. ) ;
#169 = EDGE_CURVE ( 'NONE', #268, #68, #278, .T. ) ;
#170 = LINE ( 'NONE', #162, #236 ) ;
#171 = SURFACE_STYLE_FILL_AREA ( #263 ) ;
#172 = EDGE_CURVE ( 'NONE', #176, #71, #52, .T. ) ;
#173 = ORIENTED_EDGE ( 'NONE', *, *, #169, .T. ) ;
#174 = SHAPE_DEFINITION_REPRESENTATION ( #201, #140 ) ;
#175 = CARTESIAN_POINT ( 'NONE',  ( -6.000000000000000000, -0.7499999999999986677, -10.00000000000000000 ) ) ;
#176 = VERTEX_POINT ( 'NONE', #260 ) ;
#177 = STYLED_ITEM ( 'NONE', ( #215 ), #197 ) ;
#178 = LINE ( 'NONE', #92, #127 ) ;
#179 = DIRECTION ( 'NONE',  ( 0.0000000000000000000, -0.0000000000000000000, 1.000000000000000000 ) ) ;
#180 = VECTOR ( 'NONE', #296, 1000.000000000000000 ) ;
#181 = CARTESIAN_POINT ( 'NONE',  ( 438.0000000000000000, 0.7500000000000013323, -22.00000000000000000 ) ) ;
#182 =( NAMED_UNIT ( * ) PLANE_ANGLE_UNIT ( ) SI_UNIT ( $, .RADIAN. ) );
#183 = DIRECTION ( 'NONE',  ( -1.000000000000000000, -0.0000000000000000000, -0.0000000000000000000 ) ) ;
#184 = APPLICATION_PROTOCOL_DEFINITION ( 'draft international standard', 'automotive_design', 1998, #294 ) ;
#185 = CARTESIAN_POINT ( 'NONE',  ( 438.0000000000000000, 0.7500000000000013323, -10.00000000000000000 ) ) ;
#186 = ADVANCED_FACE ( 'NONE', ( #74 ), #234, .F. ) ;
#187 = CARTESIAN_POINT ( 'NONE',  ( 438.0000000000000000, 2.000000000000001332, -10.00000000000000000 ) ) ;
#188 = ORIENTED_EDGE ( 'NONE', *, *, #288, .F. ) ;
#189 = DIRECTION ( 'NONE',  ( 1.000000000000000000, 0.0000000000000000000, 0.0000000000000000000 ) ) ;
#190 = EDGE_CURVE ( 'NONE', #146, #198, #272, .T. ) ;
#191 = CARTESIAN_POINT ( 'NONE',  ( 0.0000000000000000000, 0.0000000000000000000, 0.0000000000000000000 ) ) ;
#192 = ORIENTED_EDGE ( 'NONE', *, *, #142, .T. ) ;
#193 = LINE ( 'NONE', #175, #24 ) ;
#194 = ORIENTED_EDGE ( 'NONE', *, *, #331, .F. ) ;
#195 = AXIS2_PLACEMENT_3D ( 'NONE', #323, #12, #300 ) ;
#196 = CARTESIAN_POINT ( 'NONE',  ( 438.0000000000000000, 2.000000000000001332, -10.00000000000000000 ) ) ;
#197 = MANIFOLD_SOLID_BREP ( 'Aufsatz-Linear austragen1', #321 ) ;
#198 = VERTEX_POINT ( 'NONE', #233 ) ;
#199 = FACE_OUTER_BOUND ( 'NONE', #32, .T. ) ;
#200 = AXIS2_PLACEMENT_3D ( 'NONE', #238, #36, #62 ) ;
#201 = PRODUCT_DEFINITION_SHAPE ( 'NONE', 'NONE',  #126 ) ;
#202 = EDGE_CURVE ( 'NONE', #257, #299, #46, .T. ) ;
#203 = VERTEX_POINT ( 'NONE', #135 ) ;
#204 = DIRECTION ( 'NONE',  ( 0.0000000000000000000, 0.0000000000000000000, -1.000000000000000000 ) ) ;
#205 = LINE ( 'NONE', #165, #107 ) ;
#206 = DIRECTION ( 'NONE',  ( -0.0000000000000000000, 0.0000000000000000000, 1.000000000000000000 ) ) ;
#207 = PLANE ( 'NONE',  #200 ) ;
#208 = VECTOR ( 'NONE', #57, 1000.000000000000000 ) ;
#209 = EDGE_CURVE ( 'NONE', #317, #268, #167, .T. ) ;
#210 = DIRECTION ( 'NONE',  ( -1.000000000000000000, -0.0000000000000000000, -0.0000000000000000000 ) ) ;
#211 = CARTESIAN_POINT ( 'NONE',  ( -6.000000000000000000, -0.7499999999999986677, -22.00000000000000000 ) ) ;
#212 = ADVANCED_FACE ( 'NONE', ( #306 ), #207, .F. ) ;
#213 = CARTESIAN_POINT ( 'NONE',  ( 438.0000000000000000, 2.000000000000001332, 0.0000000000000000000 ) ) ;
#214 = VERTEX_POINT ( 'NONE', #59 ) ;
#215 = PRESENTATION_STYLE_ASSIGNMENT (( #3 ) ) ;
#216 = CARTESIAN_POINT ( 'NONE',  ( 438.0000000000000000, 2.000000000000001332, 0.0000000000000000000 ) ) ;
#217 = DIRECTION ( 'NONE',  ( -0.0000000000000000000, 1.000000000000000000, -0.0000000000000000000 ) ) ;
#218 = FILL_AREA_STYLE_COLOUR ( '', #254 ) ;
#219 =( GEOMETRIC_REPRESENTATION_CONTEXT ( 3 ) GLOBAL_UNCERTAINTY_ASSIGNED_CONTEXT ( ( #247 ) ) GLOBAL_UNIT_ASSIGNED_CONTEXT ( ( #159, #10, #262 ) ) REPRESENTATION_CONTEXT ( 'NONE', 'WORKASPACE' ) );
#220 = CARTESIAN_POINT ( 'NONE',  ( 438.0000000000000000, -0.7499999999999986677, -22.00000000000000000 ) ) ;
#221 = FACE_OUTER_BOUND ( 'NONE', #275, .T. ) ;
#222 = VECTOR ( 'NONE', #155, 1000.000000000000000 ) ;
#223 = ORIENTED_EDGE ( 'NONE', *, *, #280, .F. ) ;
#224 = LINE ( 'NONE', #11, #144 ) ;
#225 = PRODUCT ( '191786', '191786', '', ( #85 ) ) ;
#226 = VECTOR ( 'NONE', #273, 1000.000000000000000 ) ;
#227 = LINE ( 'NONE', #160, #208 ) ;
#228 = ADVANCED_FACE ( 'NONE', ( #102 ), #61, .F. ) ;
#229 = EDGE_CURVE ( 'NONE', #299, #54, #224, .T. ) ;
#230 = AXIS2_PLACEMENT_3D ( 'NONE', #276, #291, #179 ) ;
#231 = CARTESIAN_POINT ( 'NONE',  ( -6.000000000000000000, 2.000000000000001332, 0.0000000000000000000 ) ) ;
#232 = ORIENTED_EDGE ( 'NONE', *, *, #331, .T. ) ;
#233 = CARTESIAN_POINT ( 'NONE',  ( -6.000000000000000000, -1.999999999999998668, 0.0000000000000000000 ) ) ;
#234 = PLANE ( 'NONE',  #329 ) ;
#235 = ORIENTED_EDGE ( 'NONE', *, *, #22, .T. ) ;
#236 = VECTOR ( 'NONE', #241, 1000.000000000000000 ) ;
#237 = LINE ( 'NONE', #295, #9 ) ;
#238 = CARTESIAN_POINT ( 'NONE',  ( 438.0000000000000000, 0.7500000000000013323, -22.00000000000000000 ) ) ;
#239 = DIRECTION ( 'NONE',  ( 1.000000000000000000, 0.0000000000000000000, 0.0000000000000000000 ) ) ;
#240 = PLANE ( 'NONE',  #145 ) ;
#241 = DIRECTION ( 'NONE',  ( 0.0000000000000000000, 0.0000000000000000000, -1.000000000000000000 ) ) ;
#242 = ORIENTED_EDGE ( 'NONE', *, *, #142, .F. ) ;
#243 = DIRECTION ( 'NONE',  ( -0.0000000000000000000, 1.000000000000000000, -0.0000000000000000000 ) ) ;
#244 = CARTESIAN_POINT ( 'NONE',  ( 438.0000000000000000, -1.999999999999998668, -10.00000000000000000 ) ) ;
#245 =( NAMED_UNIT ( * ) SI_UNIT ( $, .STERADIAN. ) SOLID_ANGLE_UNIT ( ) );
#246 = CARTESIAN_POINT ( 'NONE',  ( -6.000000000000000000, -0.7499999999999986677, -22.00000000000000000 ) ) ;
#247 = UNCERTAINTY_MEASURE_WITH_UNIT (LENGTH_MEASURE( 1.000000000000000082E-05 ), #159, 'distance_accuracy_value', 'NONE');
#248 = FACE_OUTER_BOUND ( 'NONE', #79, .T. ) ;
#249 =( GEOMETRIC_REPRESENTATION_CONTEXT ( 3 ) GLOBAL_UNCERTAINTY_ASSIGNED_CONTEXT ( ( #128 ) ) GLOBAL_UNIT_ASSIGNED_CONTEXT ( ( #44, #164, #245 ) ) REPRESENTATION_CONTEXT ( 'NONE', 'WORKASPACE' ) );
#250 = ORIENTED_EDGE ( 'NONE', *, *, #229, .T. ) ;
#251 = ORIENTED_EDGE ( 'NONE', *, *, #4, .T. ) ;
#252 = ORIENTED_EDGE ( 'NONE', *, *, #288, .T. ) ;
#253 = ORIENTED_EDGE ( 'NONE', *, *, #190, .T. ) ;
#254 = COLOUR_RGB ( '',0.7921568627450980005, 0.8196078431372548767, 0.9333333333333333481 ) ;
#255 = PRODUCT_DEFINITION_FORMATION_WITH_SPECIFIED_SOURCE ( 'ANY', '', #225, .NOT_KNOWN. ) ;
#256 = ORIENTED_EDGE ( 'NONE', *, *, #209, .F. ) ;
#257 = VERTEX_POINT ( 'NONE', #318 ) ;
#258 = EDGE_CURVE ( 'NONE', #93, #214, #227, .T. ) ;
#259 = ORIENTED_EDGE ( 'NONE', *, *, #302, .F. ) ;
#260 = CARTESIAN_POINT ( 'NONE',  ( 438.0000000000000000, 0.7500000000000013323, -10.00000000000000000 ) ) ;
#261 =( LENGTH_UNIT ( ) NAMED_UNIT ( * ) SI_UNIT ( .MILLI., .METRE. ) );
#262 =( NAMED_UNIT ( * ) SI_UNIT ( $, .STERADIAN. ) SOLID_ANGLE_UNIT ( ) );
#263 = FILL_AREA_STYLE ('',( #218 ) ) ;
#264 = ORIENTED_EDGE ( 'NONE', *, *, #29, .F. ) ;
#265 = CARTESIAN_POINT ( 'NONE',  ( 438.0000000000000000, 2.000000000000001332, -10.00000000000000000 ) ) ;
#266 = AXIS2_PLACEMENT_3D ( 'NONE', #25, #124, #53 ) ;
#267 = DIRECTION ( 'NONE',  ( 0.0000000000000000000, 0.0000000000000000000, 1.000000000000000000 ) ) ;
#268 = VERTEX_POINT ( 'NONE', #213 ) ;
#269 = CARTESIAN_POINT ( 'NONE',  ( -6.000000000000000000, 2.000000000000001332, -10.00000000000000000 ) ) ;
#270 = EDGE_LOOP ( 'NONE', ( #120, #307, #279, #100 ) ) ;
#271 = PLANE ( 'NONE',  #313 ) ;
#272 = LINE ( 'NONE', #84, #14 ) ;
#273 = DIRECTION ( 'NONE',  ( 0.0000000000000000000, -1.000000000000000000, 0.0000000000000000000 ) ) ;
#274 = VERTEX_POINT ( 'NONE', #82 ) ;
#275 = EDGE_LOOP ( 'NONE', ( #316, #252, #50, #223 ) ) ;
#276 = CARTESIAN_POINT ( 'NONE',  ( 438.0000000000000000, -1.999999999999998668, -10.00000000000000000 ) ) ;
#277 = LINE ( 'NONE', #269, #23 ) ;
#278 = LINE ( 'NONE', #35, #139 ) ;
#279 = ORIENTED_EDGE ( 'NONE', *, *, #172, .F. ) ;
#280 = EDGE_CURVE ( 'NONE', #274, #257, #237, .T. ) ;
#281 = ORIENTED_EDGE ( 'NONE', *, *, #229, .F. ) ;
#282 = FACE_OUTER_BOUND ( 'NONE', #51, .T. ) ;
#283 = VECTOR ( 'NONE', #286, 1000.000000000000000 ) ;
#284 = ORIENTED_EDGE ( 'NONE', *, *, #309, .T. ) ;
#285 = VECTOR ( 'NONE', #37, 1000.000000000000000 ) ;
#286 = DIRECTION ( 'NONE',  ( -1.000000000000000000, -0.0000000000000000000, -0.0000000000000000000 ) ) ;
#287 = CARTESIAN_POINT ( 'NONE',  ( 438.0000000000000000, -0.7499999999999986677, -22.00000000000000000 ) ) ;
#288 = EDGE_CURVE ( 'NONE', #203, #299, #193, .T. ) ;
#289 = FILL_AREA_STYLE_COLOUR ( '', #81 ) ;
#290 = VECTOR ( 'NONE', #69, 1000.000000000000000 ) ;
#291 = DIRECTION ( 'NONE',  ( 0.0000000000000000000, 1.000000000000000000, 0.0000000000000000000 ) ) ;
#292 = UNCERTAINTY_MEASURE_WITH_UNIT (LENGTH_MEASURE( 1.000000000000000082E-05 ), #261, 'distance_accuracy_value', 'NONE');
#293 = VECTOR ( 'NONE', #114, 1000.000000000000000 ) ;
#294 = APPLICATION_CONTEXT ( 'automotive_design' ) ;
#295 = CARTESIAN_POINT ( 'NONE',  ( 438.0000000000000000, -0.7499999999999986677, -10.00000000000000000 ) ) ;
#296 = DIRECTION ( 'NONE',  ( -1.000000000000000000, -0.0000000000000000000, -0.0000000000000000000 ) ) ;
#297 = ADVANCED_FACE ( 'NONE', ( #301 ), #240, .F. ) ;
#298 = CARTESIAN_POINT ( 'NONE',  ( -6.000000000000000000, -0.7499999999999986677, -10.00000000000000000 ) ) ;
#299 = VERTEX_POINT ( 'NONE', #298 ) ;
#300 = DIRECTION ( 'NONE',  ( 0.0000000000000000000, 0.0000000000000000000, 1.000000000000000000 ) ) ;
#301 = FACE_OUTER_BOUND ( 'NONE', #78, .T. ) ;
#302 = EDGE_CURVE ( 'NONE', #115, #93, #151, .T. ) ;
#303 = VECTOR ( 'NONE', #325, 1000.000000000000000 ) ;
#304 = PRODUCT_DEFINITION_CONTEXT ( 'detailed design', #161, 'design' ) ;
#305 = ORIENTED_EDGE ( 'NONE', *, *, #328, .T. ) ;
#306 = FACE_OUTER_BOUND ( 'NONE', #270, .T. ) ;
#307 = ORIENTED_EDGE ( 'NONE', *, *, #157, .T. ) ;
#308 = ORIENTED_EDGE ( 'NONE', *, *, #328, .F. ) ;
#309 = EDGE_CURVE ( 'NONE', #198, #203, #118, .T. ) ;
#310 = ORIENTED_EDGE ( 'NONE', *, *, #15, .F. ) ;
#311 = EDGE_LOOP ( 'NONE', ( #173, #192, #163, #308 ) ) ;
#312 = CARTESIAN_POINT ( 'NONE',  ( -6.000000000000000000, 0.7500000000000013323, -10.00000000000000000 ) ) ;
#313 = AXIS2_PLACEMENT_3D ( 'NONE', #67, #326, #95 ) ;
#314 = EDGE_CURVE ( 'NONE', #176, #317, #21, .T. ) ;
#315 = CARTESIAN_POINT ( 'NONE',  ( -6.000000000000000000, 0.7500000000000013323, -22.00000000000000000 ) ) ;
#316 = ORIENTED_EDGE ( 'NONE', *, *, #47, .T. ) ;
#317 = VERTEX_POINT ( 'NONE', #196 ) ;
#318 = CARTESIAN_POINT ( 'NONE',  ( 438.0000000000000000, -0.7499999999999986677, -10.00000000000000000 ) ) ;
#319 = ADVANCED_FACE ( 'NONE', ( #199 ), #271, .F. ) ;
#320 = CARTESIAN_POINT ( 'NONE',  ( 438.0000000000000000, 2.000000000000001332, 0.0000000000000000000 ) ) ;
#321 = CLOSED_SHELL ( 'NONE', ( #228, #125, #153, #319, #55, #212, #297, #89, #186, #5 ) ) ;
#322 = CARTESIAN_POINT ( 'NONE',  ( 438.0000000000000000, -0.7499999999999986677, -22.00000000000000000 ) ) ;
#323 = CARTESIAN_POINT ( 'NONE',  ( -6.000000000000000000, 0.0000000000000000000, 0.0000000000000000000 ) ) ;
#324 = DIRECTION ( 'NONE',  ( -1.000000000000000000, -0.0000000000000000000, -0.0000000000000000000 ) ) ;
#325 = DIRECTION ( 'NONE',  ( -0.0000000000000000000, -0.0000000000000000000, -1.000000000000000000 ) ) ;
#326 = DIRECTION ( 'NONE',  ( -0.0000000000000000000, 1.000000000000000000, 0.0000000000000000000 ) ) ;
#327 = VERTEX_POINT ( 'NONE', #43 ) ;
#328 = EDGE_CURVE ( 'NONE', #268, #146, #77, .T. ) ;
#329 = AXIS2_PLACEMENT_3D ( 'NONE', #154, #30, #87 ) ;
#330 = STYLED_ITEM ( 'NONE', ( #2 ), #140 ) ;
#331 = EDGE_CURVE ( 'NONE', #327, #68, #205, .T. ) ;
#332 = ORIENTED_EDGE ( 'NONE', *, *, #302, .T. ) ;
#333 = ORIENTED_EDGE ( 'NONE', *, *, #209, .T. ) ;
#334 = DIRECTION ( 'NONE',  ( 1.000000000000000000, 0.0000000000000000000, -0.0000000000000000000 ) ) ;
ENDSEC;
END-ISO-10303-21;
