ISO-10303-21;
HEADER;
FILE_DESCRIPTION (( 'STEP AP214' ),
    '1' );
FILE_NAME ('191780.STEP',
    '2020-02-13T11:14:19',
    ( '' ),
    ( '' ),
    'SwSTEP 2.0',
    'SolidWorks 2018',
    '' );
FILE_SCHEMA (( 'AUTOMOTIVE_DESIGN' ));
ENDSEC;

DATA;
#1 = LINE ( 'NONE', #324, #120 ) ;
#2 = PRODUCT ( '191780', '191780', '', ( #147 ) ) ;
#3 = EDGE_LOOP ( 'NONE', ( #71, #276, #127, #258 ) ) ;
#4 = ORIENTED_EDGE ( 'NONE', *, *, #253, .F. ) ;
#5 = CARTESIAN_POINT ( 'NONE',  ( 426.0000000000000000, 2.000000000000001332, 0.0000000000000000000 ) ) ;
#6 = CARTESIAN_POINT ( 'NONE',  ( -6.000000000000000000, -0.7499999999999986677, -10.00000000000000000 ) ) ;
#7 = EDGE_CURVE ( 'NONE', #246, #19, #234, .T. ) ;
#8 = DIRECTION ( 'NONE',  ( 0.0000000000000000000, -1.000000000000000000, 0.0000000000000000000 ) ) ;
#9 = ORIENTED_EDGE ( 'NONE', *, *, #192, .T. ) ;
#10 = ORIENTED_EDGE ( 'NONE', *, *, #52, .F. ) ;
#11 = DIRECTION ( 'NONE',  ( 0.0000000000000000000, 0.0000000000000000000, 1.000000000000000000 ) ) ;
#12 = DIRECTION ( 'NONE',  ( -1.000000000000000000, 0.0000000000000000000, 0.0000000000000000000 ) ) ;
#13 = LINE ( 'NONE', #82, #189 ) ;
#14 =( LENGTH_UNIT ( ) NAMED_UNIT ( * ) SI_UNIT ( .MILLI., .METRE. ) );
#15 = SURFACE_SIDE_STYLE ('',( #96 ) ) ;
#16 = ORIENTED_EDGE ( 'NONE', *, *, #88, .T. ) ;
#17 = LINE ( 'NONE', #5, #56 ) ;
#18 = AXIS2_PLACEMENT_3D ( 'NONE', #111, #8, #135 ) ;
#19 = VERTEX_POINT ( 'NONE', #22 ) ;
#20 = APPLICATION_PROTOCOL_DEFINITION ( 'draft international standard', 'automotive_design', 1998, #44 ) ;
#21 = EDGE_CURVE ( 'NONE', #185, #246, #26, .T. ) ;
#22 = CARTESIAN_POINT ( 'NONE',  ( -6.000000000000000000, 0.7500000000000013323, -22.00000000000000000 ) ) ;
#23 = ORIENTED_EDGE ( 'NONE', *, *, #57, .F. ) ;
#24 = ORIENTED_EDGE ( 'NONE', *, *, #65, .T. ) ;
#25 = EDGE_CURVE ( 'NONE', #122, #185, #281, .T. ) ;
#26 = LINE ( 'NONE', #255, #314 ) ;
#27 = DIRECTION ( 'NONE',  ( 1.000000000000000000, 0.0000000000000000000, 0.0000000000000000000 ) ) ;
#28 = CARTESIAN_POINT ( 'NONE',  ( 426.0000000000000000, -1.999999999999998668, -10.00000000000000000 ) ) ;
#29 = CARTESIAN_POINT ( 'NONE',  ( 426.0000000000000000, 2.000000000000001332, -10.00000000000000000 ) ) ;
#30 = AXIS2_PLACEMENT_3D ( 'NONE', #62, #278, #176 ) ;
#31 = ADVANCED_FACE ( 'NONE', ( #37 ), #125, .F. ) ;
#32 = ORIENTED_EDGE ( 'NONE', *, *, #177, .F. ) ;
#33 = ORIENTED_EDGE ( 'NONE', *, *, #7, .T. ) ;
#34 = VECTOR ( 'NONE', #242, 1000.000000000000000 ) ;
#35 = ADVANCED_FACE ( 'NONE', ( #225 ), #152, .F. ) ;
#36 = DIRECTION ( 'NONE',  ( 0.0000000000000000000, 1.000000000000000000, 0.0000000000000000000 ) ) ;
#37 = FACE_OUTER_BOUND ( 'NONE', #130, .T. ) ;
#38 = VERTEX_POINT ( 'NONE', #254 ) ;
#39 = PLANE ( 'NONE',  #231 ) ;
#40 = DIRECTION ( 'NONE',  ( 0.0000000000000000000, -1.000000000000000000, 0.0000000000000000000 ) ) ;
#41 = AXIS2_PLACEMENT_3D ( 'NONE', #140, #40, #247 ) ;
#42 = SURFACE_SIDE_STYLE ('',( #250 ) ) ;
#43 = APPLICATION_PROTOCOL_DEFINITION ( 'draft international standard', 'automotive_design', 1998, #249 ) ;
#44 = APPLICATION_CONTEXT ( 'automotive_design' ) ;
#45 = VERTEX_POINT ( 'NONE', #244 ) ;
#46 = EDGE_CURVE ( 'NONE', #38, #267, #207, .T. ) ;
#47 = ADVANCED_BREP_SHAPE_REPRESENTATION ( '191780', ( #171, #30 ), #151 ) ;
#48 = FACE_OUTER_BOUND ( 'NONE', #90, .T. ) ;
#49 = DIRECTION ( 'NONE',  ( 1.000000000000000000, 0.0000000000000000000, -0.0000000000000000000 ) ) ;
#50 = DIRECTION ( 'NONE',  ( 0.0000000000000000000, 0.0000000000000000000, 1.000000000000000000 ) ) ;
#51 = DIRECTION ( 'NONE',  ( 0.0000000000000000000, 0.0000000000000000000, -1.000000000000000000 ) ) ;
#52 = EDGE_CURVE ( 'NONE', #53, #332, #78, .T. ) ;
#53 = VERTEX_POINT ( 'NONE', #262 ) ;
#54 = EDGE_LOOP ( 'NONE', ( #94, #251, #306, #223 ) ) ;
#55 = ORIENTED_EDGE ( 'NONE', *, *, #95, .T. ) ;
#56 = VECTOR ( 'NONE', #59, 1000.000000000000000 ) ;
#57 = EDGE_CURVE ( 'NONE', #19, #60, #285, .T. ) ;
#58 = DIRECTION ( 'NONE',  ( -0.0000000000000000000, 0.0000000000000000000, 1.000000000000000000 ) ) ;
#59 = DIRECTION ( 'NONE',  ( 0.0000000000000000000, -1.000000000000000000, 0.0000000000000000000 ) ) ;
#60 = VERTEX_POINT ( 'NONE', #289 ) ;
#61 = SHAPE_DEFINITION_REPRESENTATION ( #194, #47 ) ;
#62 = CARTESIAN_POINT ( 'NONE',  ( 0.0000000000000000000, 0.0000000000000000000, 0.0000000000000000000 ) ) ;
#63 = ADVANCED_FACE ( 'NONE', ( #106 ), #131, .F. ) ;
#64 = CARTESIAN_POINT ( 'NONE',  ( -6.000000000000000000, -1.999999999999998668, 0.0000000000000000000 ) ) ;
#65 = EDGE_CURVE ( 'NONE', #229, #45, #217, .T. ) ;
#66 =( LENGTH_UNIT ( ) NAMED_UNIT ( * ) SI_UNIT ( .MILLI., .METRE. ) );
#67 = DIRECTION ( 'NONE',  ( -1.000000000000000000, -0.0000000000000000000, -0.0000000000000000000 ) ) ;
#68 = VECTOR ( 'NONE', #236, 1000.000000000000000 ) ;
#69 = ORIENTED_EDGE ( 'NONE', *, *, #25, .F. ) ;
#70 = DIRECTION ( 'NONE',  ( 0.0000000000000000000, -0.0000000000000000000, 1.000000000000000000 ) ) ;
#71 = ORIENTED_EDGE ( 'NONE', *, *, #138, .T. ) ;
#72 = FACE_OUTER_BOUND ( 'NONE', #54, .T. ) ;
#73 = FILL_AREA_STYLE ('',( #273 ) ) ;
#74 = EDGE_LOOP ( 'NONE', ( #197, #275, #164, #69 ) ) ;
#75 =( GEOMETRIC_REPRESENTATION_CONTEXT ( 3 ) GLOBAL_UNCERTAINTY_ASSIGNED_CONTEXT ( ( #315 ) ) GLOBAL_UNIT_ASSIGNED_CONTEXT ( ( #303, #305, #145 ) ) REPRESENTATION_CONTEXT ( 'NONE', 'WORKASPACE' ) );
#76 = ORIENTED_EDGE ( 'NONE', *, *, #263, .T. ) ;
#77 = CARTESIAN_POINT ( 'NONE',  ( 426.0000000000000000, -0.7499999999999986677, -10.00000000000000000 ) ) ;
#78 = LINE ( 'NONE', #29, #68 ) ;
#79 = ORIENTED_EDGE ( 'NONE', *, *, #288, .T. ) ;
#80 = LINE ( 'NONE', #214, #156 ) ;
#81 = ORIENTED_EDGE ( 'NONE', *, *, #203, .T. ) ;
#82 = CARTESIAN_POINT ( 'NONE',  ( -6.000000000000000000, -0.7499999999999986677, -10.00000000000000000 ) ) ;
#83 = DIRECTION ( 'NONE',  ( -0.0000000000000000000, -0.0000000000000000000, -1.000000000000000000 ) ) ;
#84 = CARTESIAN_POINT ( 'NONE',  ( 426.0000000000000000, 2.000000000000001332, -10.00000000000000000 ) ) ;
#85 = ORIENTED_EDGE ( 'NONE', *, *, #88, .F. ) ;
#86 = VECTOR ( 'NONE', #259, 1000.000000000000000 ) ;
#87 = DIRECTION ( 'NONE',  ( 0.0000000000000000000, 0.0000000000000000000, -1.000000000000000000 ) ) ;
#88 = EDGE_CURVE ( 'NONE', #243, #129, #17, .T. ) ;
#89 = DIRECTION ( 'NONE',  ( 0.0000000000000000000, 0.0000000000000000000, 1.000000000000000000 ) ) ;
#90 = EDGE_LOOP ( 'NONE', ( #155, #81, #333, #4 ) ) ;
#91 = CARTESIAN_POINT ( 'NONE',  ( 426.0000000000000000, -0.7499999999999986677, -10.00000000000000000 ) ) ;
#92 = ADVANCED_FACE ( 'NONE', ( #150 ), #134, .F. ) ;
#93 =( NAMED_UNIT ( * ) SI_UNIT ( $, .STERADIAN. ) SOLID_ANGLE_UNIT ( ) );
#94 = ORIENTED_EDGE ( 'NONE', *, *, #148, .T. ) ;
#95 = EDGE_CURVE ( 'NONE', #129, #334, #230, .T. ) ;
#96 = SURFACE_STYLE_FILL_AREA ( #174 ) ;
#97 = ORIENTED_EDGE ( 'NONE', *, *, #138, .F. ) ;
#98 = VECTOR ( 'NONE', #67, 1000.000000000000000 ) ;
#99 = FACE_OUTER_BOUND ( 'NONE', #228, .T. ) ;
#100 = UNCERTAINTY_MEASURE_WITH_UNIT (LENGTH_MEASURE( 1.000000000000000082E-05 ), #14, 'distance_accuracy_value', 'NONE');
#101 = CARTESIAN_POINT ( 'NONE',  ( -6.000000000000000000, -0.7499999999999986677, -22.00000000000000000 ) ) ;
#102 = ORIENTED_EDGE ( 'NONE', *, *, #192, .F. ) ;
#103 = DIRECTION ( 'NONE',  ( 0.0000000000000000000, 0.0000000000000000000, 1.000000000000000000 ) ) ;
#104 = UNCERTAINTY_MEASURE_WITH_UNIT (LENGTH_MEASURE( 1.000000000000000082E-05 ), #66, 'distance_accuracy_value', 'NONE');
#105 = EDGE_LOOP ( 'NONE', ( #307, #24, #331, #178 ) ) ;
#106 = FACE_OUTER_BOUND ( 'NONE', #105, .T. ) ;
#107 = DIRECTION ( 'NONE',  ( -1.000000000000000000, 0.0000000000000000000, 0.0000000000000000000 ) ) ;
#108 = EDGE_CURVE ( 'NONE', #45, #246, #13, .T. ) ;
#109 = PRODUCT_DEFINITION_CONTEXT ( 'detailed design', #44, 'design' ) ;
#110 = CARTESIAN_POINT ( 'NONE',  ( 426.0000000000000000, -1.999999999999998668, 0.0000000000000000000 ) ) ;
#111 = CARTESIAN_POINT ( 'NONE',  ( 426.0000000000000000, 2.000000000000001332, -10.00000000000000000 ) ) ;
#112 = ORIENTED_EDGE ( 'NONE', *, *, #119, .T. ) ;
#113 = CARTESIAN_POINT ( 'NONE',  ( -6.000000000000000000, -1.999999999999998668, -10.00000000000000000 ) ) ;
#114 = ADVANCED_FACE ( 'NONE', ( #212 ), #319, .F. ) ;
#115 = DIRECTION ( 'NONE',  ( 0.0000000000000000000, 0.0000000000000000000, 1.000000000000000000 ) ) ;
#116 = CARTESIAN_POINT ( 'NONE',  ( 426.0000000000000000, -0.7499999999999986677, -22.00000000000000000 ) ) ;
#117 = VECTOR ( 'NONE', #265, 1000.000000000000000 ) ;
#118 = EDGE_LOOP ( 'NONE', ( #16, #55, #290, #310, #9, #112, #183, #204 ) ) ;
#119 = EDGE_CURVE ( 'NONE', #295, #53, #328, .T. ) ;
#120 = VECTOR ( 'NONE', #193, 1000.000000000000000 ) ;
#121 = LINE ( 'NONE', #245, #280 ) ;
#122 = VERTEX_POINT ( 'NONE', #159 ) ;
#123 = VECTOR ( 'NONE', #51, 1000.000000000000000 ) ;
#124 = PRODUCT_DEFINITION ( 'UNKNOWN', '', #311, #109 ) ;
#125 = PLANE ( 'NONE',  #221 ) ;
#126 = STYLED_ITEM ( 'NONE', ( #166 ), #47 ) ;
#127 = ORIENTED_EDGE ( 'NONE', *, *, #162, .F. ) ;
#128 = STYLED_ITEM ( 'NONE', ( #182 ), #171 ) ;
#129 = VERTEX_POINT ( 'NONE', #110 ) ;
#130 = EDGE_LOOP ( 'NONE', ( #144, #33, #318, #102 ) ) ;
#131 = PLANE ( 'NONE',  #257 ) ;
#132 = ORIENTED_EDGE ( 'NONE', *, *, #108, .F. ) ;
#133 = CARTESIAN_POINT ( 'NONE',  ( -6.000000000000000000, 0.7500000000000013323, -22.00000000000000000 ) ) ;
#134 = PLANE ( 'NONE',  #272 ) ;
#135 = DIRECTION ( 'NONE',  ( 0.0000000000000000000, -0.0000000000000000000, -1.000000000000000000 ) ) ;
#136 = LINE ( 'NONE', #139, #264 ) ;
#137 = CARTESIAN_POINT ( 'NONE',  ( 426.0000000000000000, 0.0000000000000000000, 0.0000000000000000000 ) ) ;
#138 = EDGE_CURVE ( 'NONE', #129, #267, #141, .T. ) ;
#139 = CARTESIAN_POINT ( 'NONE',  ( -6.000000000000000000, 2.000000000000001332, -10.00000000000000000 ) ) ;
#140 = CARTESIAN_POINT ( 'NONE',  ( 426.0000000000000000, 0.7500000000000013323, -22.00000000000000000 ) ) ;
#141 = LINE ( 'NONE', #237, #157 ) ;
#142 = DIRECTION ( 'NONE',  ( -1.000000000000000000, -0.0000000000000000000, -0.0000000000000000000 ) ) ;
#143 = ORIENTED_EDGE ( 'NONE', *, *, #203, .F. ) ;
#144 = ORIENTED_EDGE ( 'NONE', *, *, #21, .T. ) ;
#145 =( NAMED_UNIT ( * ) SI_UNIT ( $, .STERADIAN. ) SOLID_ANGLE_UNIT ( ) );
#146 = LINE ( 'NONE', #268, #277 ) ;
#147 = PRODUCT_CONTEXT ( 'NONE', #249, 'mechanical' ) ;
#148 = EDGE_CURVE ( 'NONE', #295, #19, #175, .T. ) ;
#149 = FACE_OUTER_BOUND ( 'NONE', #74, .T. ) ;
#150 = FACE_OUTER_BOUND ( 'NONE', #224, .T. ) ;
#151 =( GEOMETRIC_REPRESENTATION_CONTEXT ( 3 ) GLOBAL_UNCERTAINTY_ASSIGNED_CONTEXT ( ( #104 ) ) GLOBAL_UNIT_ASSIGNED_CONTEXT ( ( #66, #219, #202 ) ) REPRESENTATION_CONTEXT ( 'NONE', 'WORKASPACE' ) );
#152 = PLANE ( 'NONE',  #313 ) ;
#153 = CARTESIAN_POINT ( 'NONE',  ( 426.0000000000000000, -0.7499999999999986677, -22.00000000000000000 ) ) ;
#154 = VECTOR ( 'NONE', #226, 1000.000000000000000 ) ;
#155 = ORIENTED_EDGE ( 'NONE', *, *, #177, .T. ) ;
#156 = VECTOR ( 'NONE', #115, 1000.000000000000000 ) ;
#157 = VECTOR ( 'NONE', #291, 1000.000000000000000 ) ;
#158 = CARTESIAN_POINT ( 'NONE',  ( 426.0000000000000000, -0.7499999999999986677, -10.00000000000000000 ) ) ;
#159 = CARTESIAN_POINT ( 'NONE',  ( 426.0000000000000000, -0.7499999999999986677, -10.00000000000000000 ) ) ;
#160 = VECTOR ( 'NONE', #235, 1000.000000000000000 ) ;
#161 = CARTESIAN_POINT ( 'NONE',  ( 426.0000000000000000, 0.7500000000000013323, -22.00000000000000000 ) ) ;
#162 = EDGE_CURVE ( 'NONE', #334, #229, #220, .T. ) ;
#163 = ADVANCED_FACE ( 'NONE', ( #48 ), #320, .F. ) ;
#164 = ORIENTED_EDGE ( 'NONE', *, *, #21, .F. ) ;
#165 = ADVANCED_FACE ( 'NONE', ( #205 ), #293, .F. ) ;
#166 = PRESENTATION_STYLE_ASSIGNMENT (( #308 ) ) ;
#167 = VECTOR ( 'NONE', #321, 1000.000000000000000 ) ;
#168 = DIRECTION ( 'NONE',  ( -0.0000000000000000000, 1.000000000000000000, 0.0000000000000000000 ) ) ;
#169 = ADVANCED_FACE ( 'NONE', ( #99 ), #232, .T. ) ;
#170 = SURFACE_STYLE_USAGE ( .BOTH. , #15 ) ;
#171 = MANIFOLD_SOLID_BREP ( 'Aufsatz-Linear austragen1', #239 ) ;
#172 = PRESENTATION_LAYER_ASSIGNMENT (  '', '', ( #126 ) ) ;
#173 = DIRECTION ( 'NONE',  ( -0.0000000000000000000, 1.000000000000000000, -0.0000000000000000000 ) ) ;
#174 = FILL_AREA_STYLE ('',( #213 ) ) ;
#175 = LINE ( 'NONE', #287, #167 ) ;
#176 = DIRECTION ( 'NONE',  ( 1.000000000000000000, 0.0000000000000000000, 0.0000000000000000000 ) ) ;
#177 = EDGE_CURVE ( 'NONE', #332, #299, #146, .T. ) ;
#178 = ORIENTED_EDGE ( 'NONE', *, *, #240, .F. ) ;
#179 = LINE ( 'NONE', #266, #256 ) ;
#180 = CARTESIAN_POINT ( 'NONE',  ( -6.000000000000000000, 2.000000000000001332, 0.0000000000000000000 ) ) ;
#181 = ORIENTED_EDGE ( 'NONE', *, *, #46, .F. ) ;
#182 = PRESENTATION_STYLE_ASSIGNMENT (( #170 ) ) ;
#183 = ORIENTED_EDGE ( 'NONE', *, *, #52, .T. ) ;
#184 = ORIENTED_EDGE ( 'NONE', *, *, #199, .F. ) ;
#185 = VERTEX_POINT ( 'NONE', #325 ) ;
#186 =( GEOMETRIC_REPRESENTATION_CONTEXT ( 3 ) GLOBAL_UNCERTAINTY_ASSIGNED_CONTEXT ( ( #100 ) ) GLOBAL_UNIT_ASSIGNED_CONTEXT ( ( #14, #271, #93 ) ) REPRESENTATION_CONTEXT ( 'NONE', 'WORKASPACE' ) );
#187 = CARTESIAN_POINT ( 'NONE',  ( 426.0000000000000000, 2.000000000000001332, 0.0000000000000000000 ) ) ;
#188 = MECHANICAL_DESIGN_GEOMETRIC_PRESENTATION_REPRESENTATION (  '', ( #126 ), #75 ) ;
#189 = VECTOR ( 'NONE', #87, 1000.000000000000000 ) ;
#190 = DIRECTION ( 'NONE',  ( -0.0000000000000000000, 0.0000000000000000000, 1.000000000000000000 ) ) ;
#191 = VECTOR ( 'NONE', #36, 1000.000000000000000 ) ;
#192 = EDGE_CURVE ( 'NONE', #185, #295, #241, .T. ) ;
#193 = DIRECTION ( 'NONE',  ( -1.000000000000000000, -0.0000000000000000000, -0.0000000000000000000 ) ) ;
#194 = PRODUCT_DEFINITION_SHAPE ( 'NONE', 'NONE',  #124 ) ;
#195 = DIRECTION ( 'NONE',  ( 0.0000000000000000000, 0.0000000000000000000, 1.000000000000000000 ) ) ;
#196 = CARTESIAN_POINT ( 'NONE',  ( 426.0000000000000000, 0.7500000000000013323, -10.00000000000000000 ) ) ;
#197 = ORIENTED_EDGE ( 'NONE', *, *, #218, .T. ) ;
#198 = CARTESIAN_POINT ( 'NONE',  ( 426.0000000000000000, 2.000000000000001332, -10.00000000000000000 ) ) ;
#199 = EDGE_CURVE ( 'NONE', #267, #229, #209, .T. ) ;
#200 = ORIENTED_EDGE ( 'NONE', *, *, #46, .T. ) ;
#201 = LINE ( 'NONE', #302, #34 ) ;
#202 =( NAMED_UNIT ( * ) SI_UNIT ( $, .STERADIAN. ) SOLID_ANGLE_UNIT ( ) );
#203 = EDGE_CURVE ( 'NONE', #299, #38, #80, .T. ) ;
#204 = ORIENTED_EDGE ( 'NONE', *, *, #253, .T. ) ;
#205 = FACE_OUTER_BOUND ( 'NONE', #118, .T. ) ;
#206 = EDGE_CURVE ( 'NONE', #243, #38, #179, .T. ) ;
#207 = LINE ( 'NONE', #180, #154 ) ;
#208 = DIRECTION ( 'NONE',  ( -1.000000000000000000, -0.0000000000000000000, -0.0000000000000000000 ) ) ;
#209 = LINE ( 'NONE', #216, #284 ) ;
#210 = DIRECTION ( 'NONE',  ( -1.000000000000000000, 0.0000000000000000000, -0.0000000000000000000 ) ) ;
#211 = CARTESIAN_POINT ( 'NONE',  ( -6.000000000000000000, 0.0000000000000000000, 0.0000000000000000000 ) ) ;
#212 = FACE_OUTER_BOUND ( 'NONE', #296, .T. ) ;
#213 = FILL_AREA_STYLE_COLOUR ( '', #298 ) ;
#214 = CARTESIAN_POINT ( 'NONE',  ( -6.000000000000000000, 2.000000000000001332, -10.00000000000000000 ) ) ;
#215 = DIRECTION ( 'NONE',  ( -0.0000000000000000000, -0.0000000000000000000, -1.000000000000000000 ) ) ;
#216 = CARTESIAN_POINT ( 'NONE',  ( -6.000000000000000000, -1.999999999999998668, -10.00000000000000000 ) ) ;
#217 = LINE ( 'NONE', #6, #86 ) ;
#218 = EDGE_CURVE ( 'NONE', #122, #45, #1, .T. ) ;
#219 =( NAMED_UNIT ( * ) PLANE_ANGLE_UNIT ( ) SI_UNIT ( $, .RADIAN. ) );
#220 = LINE ( 'NONE', #28, #160 ) ;
#221 = AXIS2_PLACEMENT_3D ( 'NONE', #153, #50, #49 ) ;
#222 = ORIENTED_EDGE ( 'NONE', *, *, #7, .F. ) ;
#223 = ORIENTED_EDGE ( 'NONE', *, *, #119, .F. ) ;
#224 = EDGE_LOOP ( 'NONE', ( #270, #200, #97, #85 ) ) ;
#225 = FACE_OUTER_BOUND ( 'NONE', #3, .T. ) ;
#226 = DIRECTION ( 'NONE',  ( 0.0000000000000000000, -1.000000000000000000, 0.0000000000000000000 ) ) ;
#227 = AXIS2_PLACEMENT_3D ( 'NONE', #211, #12, #195 ) ;
#228 = EDGE_LOOP ( 'NONE', ( #181, #143, #309, #23, #222, #132, #283, #184 ) ) ;
#229 = VERTEX_POINT ( 'NONE', #113 ) ;
#230 = LINE ( 'NONE', #322, #260 ) ;
#231 = AXIS2_PLACEMENT_3D ( 'NONE', #91, #168, #70 ) ;
#232 = PLANE ( 'NONE',  #227 ) ;
#233 = AXIS2_PLACEMENT_3D ( 'NONE', #137, #107, #11 ) ;
#234 = LINE ( 'NONE', #101, #252 ) ;
#235 = DIRECTION ( 'NONE',  ( -1.000000000000000000, -0.0000000000000000000, -0.0000000000000000000 ) ) ;
#236 = DIRECTION ( 'NONE',  ( -0.0000000000000000000, 1.000000000000000000, -0.0000000000000000000 ) ) ;
#237 = CARTESIAN_POINT ( 'NONE',  ( 426.0000000000000000, -1.999999999999998668, 0.0000000000000000000 ) ) ;
#238 = CARTESIAN_POINT ( 'NONE',  ( 426.0000000000000000, 0.7500000000000013323, -22.00000000000000000 ) ) ;
#239 = CLOSED_SHELL ( 'NONE', ( #92, #35, #63, #300, #31, #326, #114, #163, #165, #169 ) ) ;
#240 = EDGE_CURVE ( 'NONE', #334, #122, #201, .T. ) ;
#241 = LINE ( 'NONE', #116, #191 ) ;
#242 = DIRECTION ( 'NONE',  ( -0.0000000000000000000, 1.000000000000000000, -0.0000000000000000000 ) ) ;
#243 = VERTEX_POINT ( 'NONE', #327 ) ;
#244 = CARTESIAN_POINT ( 'NONE',  ( -6.000000000000000000, -0.7499999999999986677, -10.00000000000000000 ) ) ;
#245 = CARTESIAN_POINT ( 'NONE',  ( 426.0000000000000000, 2.000000000000001332, -10.00000000000000000 ) ) ;
#246 = VERTEX_POINT ( 'NONE', #301 ) ;
#247 = DIRECTION ( 'NONE',  ( 0.0000000000000000000, -0.0000000000000000000, -1.000000000000000000 ) ) ;
#248 = VECTOR ( 'NONE', #103, 1000.000000000000000 ) ;
#249 = APPLICATION_CONTEXT ( 'automotive_design' ) ;
#250 = SURFACE_STYLE_FILL_AREA ( #73 ) ;
#251 = ORIENTED_EDGE ( 'NONE', *, *, #57, .T. ) ;
#252 = VECTOR ( 'NONE', #312, 1000.000000000000000 ) ;
#253 = EDGE_CURVE ( 'NONE', #332, #243, #121, .T. ) ;
#254 = CARTESIAN_POINT ( 'NONE',  ( -6.000000000000000000, 2.000000000000001332, 0.0000000000000000000 ) ) ;
#255 = CARTESIAN_POINT ( 'NONE',  ( 426.0000000000000000, -0.7499999999999986677, -22.00000000000000000 ) ) ;
#256 = VECTOR ( 'NONE', #142, 1000.000000000000000 ) ;
#257 = AXIS2_PLACEMENT_3D ( 'NONE', #158, #190, #27 ) ;
#258 = ORIENTED_EDGE ( 'NONE', *, *, #95, .F. ) ;
#259 = DIRECTION ( 'NONE',  ( -0.0000000000000000000, 1.000000000000000000, -0.0000000000000000000 ) ) ;
#260 = VECTOR ( 'NONE', #83, 1000.000000000000000 ) ;
#261 = DIRECTION ( 'NONE',  ( 1.000000000000000000, 0.0000000000000000000, 0.0000000000000000000 ) ) ;
#262 = CARTESIAN_POINT ( 'NONE',  ( 426.0000000000000000, 0.7500000000000013323, -10.00000000000000000 ) ) ;
#263 = EDGE_CURVE ( 'NONE', #53, #60, #316, .T. ) ;
#264 = VECTOR ( 'NONE', #173, 1000.000000000000000 ) ;
#265 = DIRECTION ( 'NONE',  ( 0.0000000000000000000, 0.0000000000000000000, 1.000000000000000000 ) ) ;
#266 = CARTESIAN_POINT ( 'NONE',  ( 426.0000000000000000, 2.000000000000001332, 0.0000000000000000000 ) ) ;
#267 = VERTEX_POINT ( 'NONE', #64 ) ;
#268 = CARTESIAN_POINT ( 'NONE',  ( 426.0000000000000000, 2.000000000000001332, -10.00000000000000000 ) ) ;
#269 = PLANE ( 'NONE',  #41 ) ;
#270 = ORIENTED_EDGE ( 'NONE', *, *, #206, .T. ) ;
#271 =( NAMED_UNIT ( * ) PLANE_ANGLE_UNIT ( ) SI_UNIT ( $, .RADIAN. ) );
#272 = AXIS2_PLACEMENT_3D ( 'NONE', #187, #286, #210 ) ;
#273 = FILL_AREA_STYLE_COLOUR ( '', #323 ) ;
#274 = DIRECTION ( 'NONE',  ( 0.0000000000000000000, 1.000000000000000000, 0.0000000000000000000 ) ) ;
#275 = ORIENTED_EDGE ( 'NONE', *, *, #108, .T. ) ;
#276 = ORIENTED_EDGE ( 'NONE', *, *, #199, .T. ) ;
#277 = VECTOR ( 'NONE', #330, 1000.000000000000000 ) ;
#278 = DIRECTION ( 'NONE',  ( 0.0000000000000000000, 0.0000000000000000000, 1.000000000000000000 ) ) ;
#279 = AXIS2_PLACEMENT_3D ( 'NONE', #84, #58, #261 ) ;
#280 = VECTOR ( 'NONE', #89, 1000.000000000000000 ) ;
#281 = LINE ( 'NONE', #77, #123 ) ;
#282 = CARTESIAN_POINT ( 'NONE',  ( 426.0000000000000000, -1.999999999999998668, -10.00000000000000000 ) ) ;
#283 = ORIENTED_EDGE ( 'NONE', *, *, #65, .F. ) ;
#284 = VECTOR ( 'NONE', #215, 1000.000000000000000 ) ;
#285 = LINE ( 'NONE', #133, #248 ) ;
#286 = DIRECTION ( 'NONE',  ( 0.0000000000000000000, 0.0000000000000000000, -1.000000000000000000 ) ) ;
#287 = CARTESIAN_POINT ( 'NONE',  ( 426.0000000000000000, 0.7500000000000013323, -22.00000000000000000 ) ) ;
#288 = EDGE_CURVE ( 'NONE', #60, #299, #136, .T. ) ;
#289 = CARTESIAN_POINT ( 'NONE',  ( -6.000000000000000000, 0.7500000000000013323, -10.00000000000000000 ) ) ;
#290 = ORIENTED_EDGE ( 'NONE', *, *, #240, .T. ) ;
#291 = DIRECTION ( 'NONE',  ( -1.000000000000000000, -0.0000000000000000000, -0.0000000000000000000 ) ) ;
#292 = PRODUCT_RELATED_PRODUCT_CATEGORY ( 'part', '', ( #2 ) ) ;
#293 = PLANE ( 'NONE',  #233 ) ;
#294 = CARTESIAN_POINT ( 'NONE',  ( 426.0000000000000000, -1.999999999999998668, -10.00000000000000000 ) ) ;
#295 = VERTEX_POINT ( 'NONE', #238 ) ;
#296 = EDGE_LOOP ( 'NONE', ( #76, #79, #32, #10 ) ) ;
#297 = CARTESIAN_POINT ( 'NONE',  ( -6.000000000000000000, 2.000000000000001332, -10.00000000000000000 ) ) ;
#298 = COLOUR_RGB ( '',0.7921568627450980005, 0.8196078431372548767, 0.9333333333333333481 ) ;
#299 = VERTEX_POINT ( 'NONE', #297 ) ;
#300 = ADVANCED_FACE ( 'NONE', ( #149 ), #39, .F. ) ;
#301 = CARTESIAN_POINT ( 'NONE',  ( -6.000000000000000000, -0.7499999999999986677, -22.00000000000000000 ) ) ;
#302 = CARTESIAN_POINT ( 'NONE',  ( 426.0000000000000000, -0.7499999999999986677, -10.00000000000000000 ) ) ;
#303 =( LENGTH_UNIT ( ) NAMED_UNIT ( * ) SI_UNIT ( .MILLI., .METRE. ) );
#304 = DIRECTION ( 'NONE',  ( 0.0000000000000000000, -0.0000000000000000000, 1.000000000000000000 ) ) ;
#305 =( NAMED_UNIT ( * ) PLANE_ANGLE_UNIT ( ) SI_UNIT ( $, .RADIAN. ) );
#306 = ORIENTED_EDGE ( 'NONE', *, *, #263, .F. ) ;
#307 = ORIENTED_EDGE ( 'NONE', *, *, #162, .T. ) ;
#308 = SURFACE_STYLE_USAGE ( .BOTH. , #42 ) ;
#309 = ORIENTED_EDGE ( 'NONE', *, *, #288, .F. ) ;
#310 = ORIENTED_EDGE ( 'NONE', *, *, #25, .T. ) ;
#311 = PRODUCT_DEFINITION_FORMATION_WITH_SPECIFIED_SOURCE ( 'ANY', '', #2, .NOT_KNOWN. ) ;
#312 = DIRECTION ( 'NONE',  ( 0.0000000000000000000, 1.000000000000000000, 0.0000000000000000000 ) ) ;
#313 = AXIS2_PLACEMENT_3D ( 'NONE', #282, #274, #304 ) ;
#314 = VECTOR ( 'NONE', #208, 1000.000000000000000 ) ;
#315 = UNCERTAINTY_MEASURE_WITH_UNIT (LENGTH_MEASURE( 1.000000000000000082E-05 ), #303, 'distance_accuracy_value', 'NONE');
#316 = LINE ( 'NONE', #196, #98 ) ;
#317 = PRESENTATION_LAYER_ASSIGNMENT (  '', '', ( #128 ) ) ;
#318 = ORIENTED_EDGE ( 'NONE', *, *, #148, .F. ) ;
#319 = PLANE ( 'NONE',  #279 ) ;
#320 = PLANE ( 'NONE',  #18 ) ;
#321 = DIRECTION ( 'NONE',  ( -1.000000000000000000, -0.0000000000000000000, -0.0000000000000000000 ) ) ;
#322 = CARTESIAN_POINT ( 'NONE',  ( 426.0000000000000000, -1.999999999999998668, -10.00000000000000000 ) ) ;
#323 = COLOUR_RGB ( '',0.7921568627450980005, 0.8196078431372548767, 0.9333333333333333481 ) ;
#324 = CARTESIAN_POINT ( 'NONE',  ( 426.0000000000000000, -0.7499999999999986677, -10.00000000000000000 ) ) ;
#325 = CARTESIAN_POINT ( 'NONE',  ( 426.0000000000000000, -0.7499999999999986677, -22.00000000000000000 ) ) ;
#326 = ADVANCED_FACE ( 'NONE', ( #72 ), #269, .F. ) ;
#327 = CARTESIAN_POINT ( 'NONE',  ( 426.0000000000000000, 2.000000000000001332, 0.0000000000000000000 ) ) ;
#328 = LINE ( 'NONE', #161, #117 ) ;
#329 = MECHANICAL_DESIGN_GEOMETRIC_PRESENTATION_REPRESENTATION (  '', ( #128 ), #186 ) ;
#330 = DIRECTION ( 'NONE',  ( -1.000000000000000000, -0.0000000000000000000, -0.0000000000000000000 ) ) ;
#331 = ORIENTED_EDGE ( 'NONE', *, *, #218, .F. ) ;
#332 = VERTEX_POINT ( 'NONE', #198 ) ;
#333 = ORIENTED_EDGE ( 'NONE', *, *, #206, .F. ) ;
#334 = VERTEX_POINT ( 'NONE', #294 ) ;
ENDSEC;
END-ISO-10303-21;
