ISO-10303-21;
HEADER;
FILE_DESCRIPTION (( 'STEP AP214' ),
    '1' );
FILE_NAME ('191779.STEP',
    '2020-02-13T11:13:09',
    ( '' ),
    ( '' ),
    'SwSTEP 2.0',
    'SolidWorks 2018',
    '' );
FILE_SCHEMA (( 'AUTOMOTIVE_DESIGN' ));
ENDSEC;

DATA;
#1 = EDGE_LOOP ( 'NONE', ( #172, #124, #266, #327 ) ) ;
#2 = DIRECTION ( 'NONE',  ( -0.0000000000000000000, 1.000000000000000000, 0.0000000000000000000 ) ) ;
#3 = VECTOR ( 'NONE', #231, 1000.000000000000000 ) ;
#4 = ORIENTED_EDGE ( 'NONE', *, *, #282, .F. ) ;
#5 = LINE ( 'NONE', #204, #295 ) ;
#6 = VERTEX_POINT ( 'NONE', #164 ) ;
#7 = CARTESIAN_POINT ( 'NONE',  ( 414.0000000000000568, 2.000000000000001332, 0.0000000000000000000 ) ) ;
#8 = DIRECTION ( 'NONE',  ( 0.0000000000000000000, 0.0000000000000000000, 1.000000000000000000 ) ) ;
#9 = AXIS2_PLACEMENT_3D ( 'NONE', #293, #64, #94 ) ;
#10 = CARTESIAN_POINT ( 'NONE',  ( -6.000000000000000000, -1.999999999999998668, -10.00000000000000000 ) ) ;
#11 = CARTESIAN_POINT ( 'NONE',  ( 414.0000000000000568, 2.000000000000001332, -10.00000000000000000 ) ) ;
#12 = DIRECTION ( 'NONE',  ( -1.000000000000000000, -0.0000000000000000000, -0.0000000000000000000 ) ) ;
#13 = DIRECTION ( 'NONE',  ( 1.000000000000000000, 0.0000000000000000000, 0.0000000000000000000 ) ) ;
#14 = EDGE_CURVE ( 'NONE', #147, #320, #257, .T. ) ;
#15 = FILL_AREA_STYLE ('',( #182 ) ) ;
#16 = ORIENTED_EDGE ( 'NONE', *, *, #282, .T. ) ;
#17 = DIRECTION ( 'NONE',  ( 1.000000000000000000, 0.0000000000000000000, -0.0000000000000000000 ) ) ;
#18 = SURFACE_SIDE_STYLE ('',( #290 ) ) ;
#19 = ADVANCED_FACE ( 'NONE', ( #77 ), #331, .F. ) ;
#20 = VECTOR ( 'NONE', #33, 1000.000000000000000 ) ;
#21 = ORIENTED_EDGE ( 'NONE', *, *, #259, .T. ) ;
#22 = STYLED_ITEM ( 'NONE', ( #196 ), #149 ) ;
#23 = ORIENTED_EDGE ( 'NONE', *, *, #38, .T. ) ;
#24 = FACE_OUTER_BOUND ( 'NONE', #1, .T. ) ;
#25 = EDGE_CURVE ( 'NONE', #136, #300, #163, .T. ) ;
#26 = ORIENTED_EDGE ( 'NONE', *, *, #326, .T. ) ;
#27 =( LENGTH_UNIT ( ) NAMED_UNIT ( * ) SI_UNIT ( .MILLI., .METRE. ) );
#28 = UNCERTAINTY_MEASURE_WITH_UNIT (LENGTH_MEASURE( 1.000000000000000082E-05 ), #180, 'distance_accuracy_value', 'NONE');
#29 = DIRECTION ( 'NONE',  ( -1.000000000000000000, 0.0000000000000000000, 0.0000000000000000000 ) ) ;
#30 = DIRECTION ( 'NONE',  ( -1.000000000000000000, 0.0000000000000000000, -0.0000000000000000000 ) ) ;
#31 = DIRECTION ( 'NONE',  ( 0.0000000000000000000, 1.000000000000000000, 0.0000000000000000000 ) ) ;
#32 = CARTESIAN_POINT ( 'NONE',  ( -6.000000000000000000, 0.7500000000000013323, -22.00000000000000000 ) ) ;
#33 = DIRECTION ( 'NONE',  ( -1.000000000000000000, -0.0000000000000000000, -0.0000000000000000000 ) ) ;
#34 = AXIS2_PLACEMENT_3D ( 'NONE', #310, #2, #239 ) ;
#35 = DIRECTION ( 'NONE',  ( 0.0000000000000000000, -0.0000000000000000000, -1.000000000000000000 ) ) ;
#36 = APPLICATION_CONTEXT ( 'automotive_design' ) ;
#37 = CARTESIAN_POINT ( 'NONE',  ( 414.0000000000000568, -0.7499999999999986677, -10.00000000000000000 ) ) ;
#38 = EDGE_CURVE ( 'NONE', #228, #244, #322, .T. ) ;
#39 = ADVANCED_FACE ( 'NONE', ( #159 ), #291, .F. ) ;
#40 = PRODUCT ( '191779', '191779', '', ( #324 ) ) ;
#41 = APPLICATION_CONTEXT ( 'automotive_design' ) ;
#42 = VECTOR ( 'NONE', #243, 1000.000000000000000 ) ;
#43 = PRODUCT_DEFINITION_SHAPE ( 'NONE', 'NONE',  #134 ) ;
#44 = VECTOR ( 'NONE', #68, 1000.000000000000000 ) ;
#45 = CARTESIAN_POINT ( 'NONE',  ( -6.000000000000000000, -0.7499999999999986677, -10.00000000000000000 ) ) ;
#46 = LINE ( 'NONE', #288, #110 ) ;
#47 = PRODUCT_DEFINITION_CONTEXT ( 'detailed design', #41, 'design' ) ;
#48 = VECTOR ( 'NONE', #319, 1000.000000000000000 ) ;
#49 = VECTOR ( 'NONE', #270, 1000.000000000000000 ) ;
#50 = PRESENTATION_LAYER_ASSIGNMENT (  '', '', ( #22 ) ) ;
#51 = AXIS2_PLACEMENT_3D ( 'NONE', #236, #198, #8 ) ;
#52 = ORIENTED_EDGE ( 'NONE', *, *, #303, .F. ) ;
#53 = PLANE ( 'NONE',  #305 ) ;
#54 = VECTOR ( 'NONE', #168, 1000.000000000000000 ) ;
#55 = LINE ( 'NONE', #249, #165 ) ;
#56 = SURFACE_STYLE_USAGE ( .BOTH. , #82 ) ;
#57 = ORIENTED_EDGE ( 'NONE', *, *, #255, .T. ) ;
#58 = DIRECTION ( 'NONE',  ( -0.0000000000000000000, -0.0000000000000000000, -1.000000000000000000 ) ) ;
#59 = VECTOR ( 'NONE', #277, 1000.000000000000000 ) ;
#60 = PLANE ( 'NONE',  #212 ) ;
#61 = PRODUCT_DEFINITION_FORMATION_WITH_SPECIFIED_SOURCE ( 'ANY', '', #40, .NOT_KNOWN. ) ;
#62 = PLANE ( 'NONE',  #34 ) ;
#63 = VERTEX_POINT ( 'NONE', #175 ) ;
#64 = DIRECTION ( 'NONE',  ( -0.0000000000000000000, 0.0000000000000000000, 1.000000000000000000 ) ) ;
#65 = DIRECTION ( 'NONE',  ( 0.0000000000000000000, -1.000000000000000000, 0.0000000000000000000 ) ) ;
#66 = CARTESIAN_POINT ( 'NONE',  ( 414.0000000000000568, 0.7500000000000013323, -10.00000000000000000 ) ) ;
#67 = AXIS2_PLACEMENT_3D ( 'NONE', #296, #158, #323 ) ;
#68 = DIRECTION ( 'NONE',  ( -1.000000000000000000, -0.0000000000000000000, -0.0000000000000000000 ) ) ;
#69 = LINE ( 'NONE', #267, #20 ) ;
#70 = CARTESIAN_POINT ( 'NONE',  ( 414.0000000000000568, 2.000000000000001332, -10.00000000000000000 ) ) ;
#71 = UNCERTAINTY_MEASURE_WITH_UNIT (LENGTH_MEASURE( 1.000000000000000082E-05 ), #87, 'distance_accuracy_value', 'NONE');
#72 = DIRECTION ( 'NONE',  ( -1.000000000000000000, -0.0000000000000000000, -0.0000000000000000000 ) ) ;
#73 = APPLICATION_PROTOCOL_DEFINITION ( 'draft international standard', 'automotive_design', 1998, #41 ) ;
#74 = LINE ( 'NONE', #143, #256 ) ;
#75 = VERTEX_POINT ( 'NONE', #11 ) ;
#76 = ORIENTED_EDGE ( 'NONE', *, *, #153, .T. ) ;
#77 = FACE_OUTER_BOUND ( 'NONE', #271, .T. ) ;
#78 = ORIENTED_EDGE ( 'NONE', *, *, #292, .T. ) ;
#79 = ORIENTED_EDGE ( 'NONE', *, *, #25, .F. ) ;
#80 = EDGE_CURVE ( 'NONE', #320, #97, #262, .T. ) ;
#81 = ORIENTED_EDGE ( 'NONE', *, *, #118, .T. ) ;
#82 = SURFACE_SIDE_STYLE ('',( #139 ) ) ;
#83 = DIRECTION ( 'NONE',  ( 0.0000000000000000000, 0.0000000000000000000, 1.000000000000000000 ) ) ;
#84 = ORIENTED_EDGE ( 'NONE', *, *, #100, .T. ) ;
#85 = CARTESIAN_POINT ( 'NONE',  ( -6.000000000000000000, 0.7500000000000013323, -10.00000000000000000 ) ) ;
#86 = PRODUCT_RELATED_PRODUCT_CATEGORY ( 'part', '', ( #40 ) ) ;
#87 =( LENGTH_UNIT ( ) NAMED_UNIT ( * ) SI_UNIT ( .MILLI., .METRE. ) );
#88 = ORIENTED_EDGE ( 'NONE', *, *, #242, .F. ) ;
#89 = VECTOR ( 'NONE', #83, 1000.000000000000000 ) ;
#90 = ORIENTED_EDGE ( 'NONE', *, *, #161, .T. ) ;
#91 = DIRECTION ( 'NONE',  ( 0.0000000000000000000, 0.0000000000000000000, 1.000000000000000000 ) ) ;
#92 = PLANE ( 'NONE',  #9 ) ;
#93 = EDGE_CURVE ( 'NONE', #63, #320, #55, .T. ) ;
#94 = DIRECTION ( 'NONE',  ( 1.000000000000000000, 0.0000000000000000000, 0.0000000000000000000 ) ) ;
#95 = CARTESIAN_POINT ( 'NONE',  ( -6.000000000000000000, -1.999999999999998668, 0.0000000000000000000 ) ) ;
#96 = LINE ( 'NONE', #203, #42 ) ;
#97 = VERTEX_POINT ( 'NONE', #32 ) ;
#98 = MECHANICAL_DESIGN_GEOMETRIC_PRESENTATION_REPRESENTATION (  '', ( #22 ), #101 ) ;
#99 = VECTOR ( 'NONE', #206, 1000.000000000000000 ) ;
#100 = EDGE_CURVE ( 'NONE', #75, #245, #186, .T. ) ;
#101 =( GEOMETRIC_REPRESENTATION_CONTEXT ( 3 ) GLOBAL_UNCERTAINTY_ASSIGNED_CONTEXT ( ( #299 ) ) GLOBAL_UNIT_ASSIGNED_CONTEXT ( ( #27, #265, #220 ) ) REPRESENTATION_CONTEXT ( 'NONE', 'WORKASPACE' ) );
#102 = EDGE_LOOP ( 'NONE', ( #334, #254, #132, #238 ) ) ;
#103 = SHAPE_DEFINITION_REPRESENTATION ( #43, #215 ) ;
#104 = FACE_OUTER_BOUND ( 'NONE', #125, .T. ) ;
#105 = ORIENTED_EDGE ( 'NONE', *, *, #255, .F. ) ;
#106 = EDGE_LOOP ( 'NONE', ( #81, #200, #221, #126 ) ) ;
#107 = ORIENTED_EDGE ( 'NONE', *, *, #167, .T. ) ;
#108 = LINE ( 'NONE', #169, #89 ) ;
#109 = ORIENTED_EDGE ( 'NONE', *, *, #167, .F. ) ;
#110 = VECTOR ( 'NONE', #313, 1000.000000000000000 ) ;
#111 = CARTESIAN_POINT ( 'NONE',  ( 414.0000000000000568, -1.999999999999998668, 0.0000000000000000000 ) ) ;
#112 = DIRECTION ( 'NONE',  ( -1.000000000000000000, -0.0000000000000000000, -0.0000000000000000000 ) ) ;
#113 = CARTESIAN_POINT ( 'NONE',  ( 414.0000000000000568, -1.999999999999998668, 0.0000000000000000000 ) ) ;
#114 = DIRECTION ( 'NONE',  ( -1.000000000000000000, -0.0000000000000000000, -0.0000000000000000000 ) ) ;
#115 = CARTESIAN_POINT ( 'NONE',  ( -6.000000000000000000, -0.7499999999999986677, -22.00000000000000000 ) ) ;
#116 = CARTESIAN_POINT ( 'NONE',  ( 414.0000000000000568, 0.7500000000000013323, -22.00000000000000000 ) ) ;
#117 = CARTESIAN_POINT ( 'NONE',  ( 414.0000000000000568, -1.999999999999998668, -10.00000000000000000 ) ) ;
#118 = EDGE_CURVE ( 'NONE', #166, #97, #213, .T. ) ;
#119 =( NAMED_UNIT ( * ) SI_UNIT ( $, .STERADIAN. ) SOLID_ANGLE_UNIT ( ) );
#120 = ORIENTED_EDGE ( 'NONE', *, *, #303, .T. ) ;
#121 = CARTESIAN_POINT ( 'NONE',  ( -6.000000000000000000, 2.000000000000001332, -10.00000000000000000 ) ) ;
#122 = LINE ( 'NONE', #240, #54 ) ;
#123 = LINE ( 'NONE', #177, #49 ) ;
#124 = ORIENTED_EDGE ( 'NONE', *, *, #14, .T. ) ;
#125 = EDGE_LOOP ( 'NONE', ( #90, #120, #154, #109 ) ) ;
#126 = ORIENTED_EDGE ( 'NONE', *, *, #153, .F. ) ;
#127 = STYLED_ITEM ( 'NONE', ( #263 ), #215 ) ;
#128 = EDGE_LOOP ( 'NONE', ( #78, #107, #179, #21, #140, #76, #57, #84 ) ) ;
#129 = VECTOR ( 'NONE', #91, 1000.000000000000000 ) ;
#130 = VECTOR ( 'NONE', #306, 1000.000000000000000 ) ;
#131 = VECTOR ( 'NONE', #12, 1000.000000000000000 ) ;
#132 = ORIENTED_EDGE ( 'NONE', *, *, #301, .F. ) ;
#133 = FACE_OUTER_BOUND ( 'NONE', #312, .T. ) ;
#134 = PRODUCT_DEFINITION ( 'UNKNOWN', '', #61, #47 ) ;
#135 = ORIENTED_EDGE ( 'NONE', *, *, #192, .F. ) ;
#136 = VERTEX_POINT ( 'NONE', #318 ) ;
#137 = EDGE_CURVE ( 'NONE', #97, #228, #122, .T. ) ;
#138 = ORIENTED_EDGE ( 'NONE', *, *, #14, .F. ) ;
#139 = SURFACE_STYLE_FILL_AREA ( #174 ) ;
#140 = ORIENTED_EDGE ( 'NONE', *, *, #242, .T. ) ;
#141 = CARTESIAN_POINT ( 'NONE',  ( 414.0000000000000568, -1.999999999999998668, -10.00000000000000000 ) ) ;
#142 = LINE ( 'NONE', #66, #44 ) ;
#143 = CARTESIAN_POINT ( 'NONE',  ( 414.0000000000000568, -1.999999999999998668, -10.00000000000000000 ) ) ;
#144 = CARTESIAN_POINT ( 'NONE',  ( 414.0000000000000568, 0.7500000000000013323, -22.00000000000000000 ) ) ;
#145 = CARTESIAN_POINT ( 'NONE',  ( 414.0000000000000568, -0.7499999999999986677, -22.00000000000000000 ) ) ;
#146 = CARTESIAN_POINT ( 'NONE',  ( -6.000000000000000000, 2.000000000000001332, 0.0000000000000000000 ) ) ;
#147 = VERTEX_POINT ( 'NONE', #289 ) ;
#148 =( NAMED_UNIT ( * ) PLANE_ANGLE_UNIT ( ) SI_UNIT ( $, .RADIAN. ) );
#149 = MANIFOLD_SOLID_BREP ( 'Aufsatz-Linear austragen1', #304 ) ;
#150 = CARTESIAN_POINT ( 'NONE',  ( 414.0000000000000568, -0.7499999999999986677, -10.00000000000000000 ) ) ;
#151 = FACE_OUTER_BOUND ( 'NONE', #235, .T. ) ;
#152 = ORIENTED_EDGE ( 'NONE', *, *, #25, .T. ) ;
#153 = EDGE_CURVE ( 'NONE', #166, #6, #108, .T. ) ;
#154 = ORIENTED_EDGE ( 'NONE', *, *, #226, .F. ) ;
#155 = ADVANCED_FACE ( 'NONE', ( #151 ), #60, .T. ) ;
#156 = FACE_OUTER_BOUND ( 'NONE', #229, .T. ) ;
#157 = ORIENTED_EDGE ( 'NONE', *, *, #137, .F. ) ;
#158 = DIRECTION ( 'NONE',  ( 0.0000000000000000000, 0.0000000000000000000, 1.000000000000000000 ) ) ;
#159 = FACE_OUTER_BOUND ( 'NONE', #102, .T. ) ;
#160 = AXIS2_PLACEMENT_3D ( 'NONE', #308, #31, #195 ) ;
#161 = EDGE_CURVE ( 'NONE', #202, #300, #258, .T. ) ;
#162 = ADVANCED_FACE ( 'NONE', ( #298 ), #53, .F. ) ;
#163 = LINE ( 'NONE', #146, #276 ) ;
#164 = CARTESIAN_POINT ( 'NONE',  ( 414.0000000000000568, 0.7500000000000013323, -10.00000000000000000 ) ) ;
#165 = VECTOR ( 'NONE', #223, 1000.000000000000000 ) ;
#166 = VERTEX_POINT ( 'NONE', #173 ) ;
#167 = EDGE_CURVE ( 'NONE', #202, #307, #74, .T. ) ;
#168 = DIRECTION ( 'NONE',  ( 0.0000000000000000000, 0.0000000000000000000, 1.000000000000000000 ) ) ;
#169 = CARTESIAN_POINT ( 'NONE',  ( 414.0000000000000568, 0.7500000000000013323, -22.00000000000000000 ) ) ;
#170 = VERTEX_POINT ( 'NONE', #10 ) ;
#171 = COLOUR_RGB ( '',0.7921568627450980005, 0.8196078431372548767, 0.9333333333333333481 ) ;
#172 = ORIENTED_EDGE ( 'NONE', *, *, #301, .T. ) ;
#173 = CARTESIAN_POINT ( 'NONE',  ( 414.0000000000000568, 0.7500000000000013323, -22.00000000000000000 ) ) ;
#174 = FILL_AREA_STYLE ('',( #237 ) ) ;
#175 = CARTESIAN_POINT ( 'NONE',  ( 414.0000000000000568, -0.7499999999999986677, -22.00000000000000000 ) ) ;
#176 = CARTESIAN_POINT ( 'NONE',  ( 414.0000000000000568, -0.7499999999999986677, -22.00000000000000000 ) ) ;
#177 = CARTESIAN_POINT ( 'NONE',  ( 414.0000000000000568, 2.000000000000001332, -10.00000000000000000 ) ) ;
#178 = EDGE_CURVE ( 'NONE', #170, #147, #46, .T. ) ;
#179 = ORIENTED_EDGE ( 'NONE', *, *, #273, .T. ) ;
#180 =( LENGTH_UNIT ( ) NAMED_UNIT ( * ) SI_UNIT ( .MILLI., .METRE. ) );
#181 = ADVANCED_FACE ( 'NONE', ( #24 ), #62, .F. ) ;
#182 = FILL_AREA_STYLE_COLOUR ( '', #264 ) ;
#183 = ADVANCED_FACE ( 'NONE', ( #332 ), #287, .F. ) ;
#184 = ADVANCED_FACE ( 'NONE', ( #309 ), #268, .F. ) ;
#185 = ORIENTED_EDGE ( 'NONE', *, *, #192, .T. ) ;
#186 = LINE ( 'NONE', #209, #129 ) ;
#187 = CARTESIAN_POINT ( 'NONE',  ( 414.0000000000000568, 2.000000000000001332, -10.00000000000000000 ) ) ;
#188 = DIRECTION ( 'NONE',  ( 0.0000000000000000000, -1.000000000000000000, 0.0000000000000000000 ) ) ;
#189 = DIRECTION ( 'NONE',  ( -1.000000000000000000, -0.0000000000000000000, -0.0000000000000000000 ) ) ;
#190 = AXIS2_PLACEMENT_3D ( 'NONE', #187, #188, #35 ) ;
#191 = LINE ( 'NONE', #70, #233 ) ;
#192 = EDGE_CURVE ( 'NONE', #245, #136, #69, .T. ) ;
#193 = ORIENTED_EDGE ( 'NONE', *, *, #161, .F. ) ;
#194 = CARTESIAN_POINT ( 'NONE',  ( -6.000000000000000000, 0.0000000000000000000, 0.0000000000000000000 ) ) ;
#195 = DIRECTION ( 'NONE',  ( 0.0000000000000000000, -0.0000000000000000000, 1.000000000000000000 ) ) ;
#196 = PRESENTATION_STYLE_ASSIGNMENT (( #56 ) ) ;
#197 = ORIENTED_EDGE ( 'NONE', *, *, #118, .F. ) ;
#198 = DIRECTION ( 'NONE',  ( -1.000000000000000000, 0.0000000000000000000, 0.0000000000000000000 ) ) ;
#199 = DIRECTION ( 'NONE',  ( -0.0000000000000000000, 1.000000000000000000, -0.0000000000000000000 ) ) ;
#200 = ORIENTED_EDGE ( 'NONE', *, *, #137, .T. ) ;
#201 =( NAMED_UNIT ( * ) SI_UNIT ( $, .STERADIAN. ) SOLID_ANGLE_UNIT ( ) );
#202 = VERTEX_POINT ( 'NONE', #113 ) ;
#203 = CARTESIAN_POINT ( 'NONE',  ( -6.000000000000000000, -1.999999999999998668, -10.00000000000000000 ) ) ;
#204 = CARTESIAN_POINT ( 'NONE',  ( 414.0000000000000568, 2.000000000000001332, 0.0000000000000000000 ) ) ;
#205 = ORIENTED_EDGE ( 'NONE', *, *, #292, .F. ) ;
#206 = DIRECTION ( 'NONE',  ( 0.0000000000000000000, 0.0000000000000000000, -1.000000000000000000 ) ) ;
#207 = LINE ( 'NONE', #227, #131 ) ;
#208 = ADVANCED_FACE ( 'NONE', ( #104 ), #217, .F. ) ;
#209 = CARTESIAN_POINT ( 'NONE',  ( 414.0000000000000568, 2.000000000000001332, -10.00000000000000000 ) ) ;
#210 = VECTOR ( 'NONE', #189, 1000.000000000000000 ) ;
#211 = LINE ( 'NONE', #37, #48 ) ;
#212 = AXIS2_PLACEMENT_3D ( 'NONE', #194, #29, #216 ) ;
#213 = LINE ( 'NONE', #116, #210 ) ;
#214 = DIRECTION ( 'NONE',  ( 0.0000000000000000000, 0.0000000000000000000, -1.000000000000000000 ) ) ;
#215 = ADVANCED_BREP_SHAPE_REPRESENTATION ( '191779', ( #149, #67 ), #230 ) ;
#216 = DIRECTION ( 'NONE',  ( 0.0000000000000000000, 0.0000000000000000000, 1.000000000000000000 ) ) ;
#217 = PLANE ( 'NONE',  #160 ) ;
#218 = VECTOR ( 'NONE', #114, 1000.000000000000000 ) ;
#219 = VECTOR ( 'NONE', #112, 1000.000000000000000 ) ;
#220 =( NAMED_UNIT ( * ) SI_UNIT ( $, .STERADIAN. ) SOLID_ANGLE_UNIT ( ) );
#221 = ORIENTED_EDGE ( 'NONE', *, *, #326, .F. ) ;
#222 = DIRECTION ( 'NONE',  ( 0.0000000000000000000, -0.0000000000000000000, -1.000000000000000000 ) ) ;
#223 = DIRECTION ( 'NONE',  ( -1.000000000000000000, -0.0000000000000000000, -0.0000000000000000000 ) ) ;
#224 =( GEOMETRIC_REPRESENTATION_CONTEXT ( 3 ) GLOBAL_UNCERTAINTY_ASSIGNED_CONTEXT ( ( #71 ) ) GLOBAL_UNIT_ASSIGNED_CONTEXT ( ( #87, #272, #119 ) ) REPRESENTATION_CONTEXT ( 'NONE', 'WORKASPACE' ) );
#225 = APPLICATION_PROTOCOL_DEFINITION ( 'draft international standard', 'automotive_design', 1998, #36 ) ;
#226 = EDGE_CURVE ( 'NONE', #307, #170, #286, .T. ) ;
#227 = CARTESIAN_POINT ( 'NONE',  ( 414.0000000000000568, -0.7499999999999986677, -10.00000000000000000 ) ) ;
#228 = VERTEX_POINT ( 'NONE', #85 ) ;
#229 = EDGE_LOOP ( 'NONE', ( #26, #23, #261, #105 ) ) ;
#230 =( GEOMETRIC_REPRESENTATION_CONTEXT ( 3 ) GLOBAL_UNCERTAINTY_ASSIGNED_CONTEXT ( ( #28 ) ) GLOBAL_UNIT_ASSIGNED_CONTEXT ( ( #180, #148, #201 ) ) REPRESENTATION_CONTEXT ( 'NONE', 'WORKASPACE' ) );
#231 = DIRECTION ( 'NONE',  ( 0.0000000000000000000, 0.0000000000000000000, -1.000000000000000000 ) ) ;
#232 = MECHANICAL_DESIGN_GEOMETRIC_PRESENTATION_REPRESENTATION (  '', ( #127 ), #224 ) ;
#233 = VECTOR ( 'NONE', #72, 1000.000000000000000 ) ;
#234 = EDGE_CURVE ( 'NONE', #75, #244, #191, .T. ) ;
#235 = EDGE_LOOP ( 'NONE', ( #79, #4, #285, #157, #260, #138, #329, #52 ) ) ;
#236 = CARTESIAN_POINT ( 'NONE',  ( 414.0000000000000568, 0.0000000000000000000, 0.0000000000000000000 ) ) ;
#237 = FILL_AREA_STYLE_COLOUR ( '', #171 ) ;
#238 = ORIENTED_EDGE ( 'NONE', *, *, #273, .F. ) ;
#239 = DIRECTION ( 'NONE',  ( 0.0000000000000000000, -0.0000000000000000000, 1.000000000000000000 ) ) ;
#240 = CARTESIAN_POINT ( 'NONE',  ( -6.000000000000000000, 0.7500000000000013323, -22.00000000000000000 ) ) ;
#241 = DIRECTION ( 'NONE',  ( -0.0000000000000000000, 0.0000000000000000000, 1.000000000000000000 ) ) ;
#242 = EDGE_CURVE ( 'NONE', #63, #166, #284, .T. ) ;
#243 = DIRECTION ( 'NONE',  ( -0.0000000000000000000, -0.0000000000000000000, -1.000000000000000000 ) ) ;
#244 = VERTEX_POINT ( 'NONE', #248 ) ;
#245 = VERTEX_POINT ( 'NONE', #279 ) ;
#246 = SURFACE_STYLE_USAGE ( .BOTH. , #18 ) ;
#247 = AXIS2_PLACEMENT_3D ( 'NONE', #145, #251, #17 ) ;
#248 = CARTESIAN_POINT ( 'NONE',  ( -6.000000000000000000, 2.000000000000001332, -10.00000000000000000 ) ) ;
#249 = CARTESIAN_POINT ( 'NONE',  ( 414.0000000000000568, -0.7499999999999986677, -22.00000000000000000 ) ) ;
#250 = ADVANCED_FACE ( 'NONE', ( #133 ), #294, .F. ) ;
#251 = DIRECTION ( 'NONE',  ( 0.0000000000000000000, 0.0000000000000000000, 1.000000000000000000 ) ) ;
#252 = ORIENTED_EDGE ( 'NONE', *, *, #234, .T. ) ;
#253 = AXIS2_PLACEMENT_3D ( 'NONE', #7, #214, #30 ) ;
#254 = ORIENTED_EDGE ( 'NONE', *, *, #178, .T. ) ;
#255 = EDGE_CURVE ( 'NONE', #6, #75, #123, .T. ) ;
#256 = VECTOR ( 'NONE', #58, 1000.000000000000000 ) ;
#257 = LINE ( 'NONE', #45, #3 ) ;
#258 = LINE ( 'NONE', #111, #218 ) ;
#259 = EDGE_CURVE ( 'NONE', #275, #63, #325, .T. ) ;
#260 = ORIENTED_EDGE ( 'NONE', *, *, #80, .F. ) ;
#261 = ORIENTED_EDGE ( 'NONE', *, *, #234, .F. ) ;
#262 = LINE ( 'NONE', #115, #130 ) ;
#263 = PRESENTATION_STYLE_ASSIGNMENT (( #246 ) ) ;
#264 = COLOUR_RGB ( '',0.7921568627450980005, 0.8196078431372548767, 0.9333333333333333481 ) ;
#265 =( NAMED_UNIT ( * ) PLANE_ANGLE_UNIT ( ) SI_UNIT ( $, .RADIAN. ) );
#266 = ORIENTED_EDGE ( 'NONE', *, *, #93, .F. ) ;
#267 = CARTESIAN_POINT ( 'NONE',  ( 414.0000000000000568, 2.000000000000001332, 0.0000000000000000000 ) ) ;
#268 = PLANE ( 'NONE',  #51 ) ;
#269 = CARTESIAN_POINT ( 'NONE',  ( -6.000000000000000000, 2.000000000000001332, -10.00000000000000000 ) ) ;
#270 = DIRECTION ( 'NONE',  ( -0.0000000000000000000, 1.000000000000000000, -0.0000000000000000000 ) ) ;
#271 = EDGE_LOOP ( 'NONE', ( #252, #16, #135, #316 ) ) ;
#272 =( NAMED_UNIT ( * ) PLANE_ANGLE_UNIT ( ) SI_UNIT ( $, .RADIAN. ) );
#273 = EDGE_CURVE ( 'NONE', #307, #275, #211, .T. ) ;
#274 = DIRECTION ( 'NONE',  ( 0.0000000000000000000, 1.000000000000000000, 0.0000000000000000000 ) ) ;
#275 = VERTEX_POINT ( 'NONE', #314 ) ;
#276 = VECTOR ( 'NONE', #65, 1000.000000000000000 ) ;
#277 = DIRECTION ( 'NONE',  ( 0.0000000000000000000, 0.0000000000000000000, 1.000000000000000000 ) ) ;
#278 = ADVANCED_FACE ( 'NONE', ( #156 ), #92, .F. ) ;
#279 = CARTESIAN_POINT ( 'NONE',  ( 414.0000000000000568, 2.000000000000001332, 0.0000000000000000000 ) ) ;
#280 = VECTOR ( 'NONE', #199, 1000.000000000000000 ) ;
#281 = ORIENTED_EDGE ( 'NONE', *, *, #80, .T. ) ;
#282 = EDGE_CURVE ( 'NONE', #244, #136, #302, .T. ) ;
#283 = AXIS2_PLACEMENT_3D ( 'NONE', #315, #241, #13 ) ;
#284 = LINE ( 'NONE', #176, #330 ) ;
#285 = ORIENTED_EDGE ( 'NONE', *, *, #38, .F. ) ;
#286 = LINE ( 'NONE', #141, #219 ) ;
#287 = PLANE ( 'NONE',  #253 ) ;
#288 = CARTESIAN_POINT ( 'NONE',  ( -6.000000000000000000, -0.7499999999999986677, -10.00000000000000000 ) ) ;
#289 = CARTESIAN_POINT ( 'NONE',  ( -6.000000000000000000, -0.7499999999999986677, -10.00000000000000000 ) ) ;
#290 = SURFACE_STYLE_FILL_AREA ( #15 ) ;
#291 = PLANE ( 'NONE',  #283 ) ;
#292 = EDGE_CURVE ( 'NONE', #245, #202, #5, .T. ) ;
#293 = CARTESIAN_POINT ( 'NONE',  ( 414.0000000000000568, 2.000000000000001332, -10.00000000000000000 ) ) ;
#294 = PLANE ( 'NONE',  #247 ) ;
#295 = VECTOR ( 'NONE', #297, 1000.000000000000000 ) ;
#296 = CARTESIAN_POINT ( 'NONE',  ( 0.0000000000000000000, 0.0000000000000000000, 0.0000000000000000000 ) ) ;
#297 = DIRECTION ( 'NONE',  ( 0.0000000000000000000, -1.000000000000000000, 0.0000000000000000000 ) ) ;
#298 = FACE_OUTER_BOUND ( 'NONE', #106, .T. ) ;
#299 = UNCERTAINTY_MEASURE_WITH_UNIT (LENGTH_MEASURE( 1.000000000000000082E-05 ), #27, 'distance_accuracy_value', 'NONE');
#300 = VERTEX_POINT ( 'NONE', #95 ) ;
#301 = EDGE_CURVE ( 'NONE', #275, #147, #207, .T. ) ;
#302 = LINE ( 'NONE', #121, #59 ) ;
#303 = EDGE_CURVE ( 'NONE', #300, #170, #96, .T. ) ;
#304 = CLOSED_SHELL ( 'NONE', ( #183, #208, #39, #181, #250, #162, #278, #19, #184, #155 ) ) ;
#305 = AXIS2_PLACEMENT_3D ( 'NONE', #144, #311, #222 ) ;
#306 = DIRECTION ( 'NONE',  ( 0.0000000000000000000, 1.000000000000000000, 0.0000000000000000000 ) ) ;
#307 = VERTEX_POINT ( 'NONE', #117 ) ;
#308 = CARTESIAN_POINT ( 'NONE',  ( 414.0000000000000568, -1.999999999999998668, -10.00000000000000000 ) ) ;
#309 = FACE_OUTER_BOUND ( 'NONE', #128, .T. ) ;
#310 = CARTESIAN_POINT ( 'NONE',  ( 414.0000000000000568, -0.7499999999999986677, -10.00000000000000000 ) ) ;
#311 = DIRECTION ( 'NONE',  ( 0.0000000000000000000, -1.000000000000000000, 0.0000000000000000000 ) ) ;
#312 = EDGE_LOOP ( 'NONE', ( #317, #281, #197, #88 ) ) ;
#313 = DIRECTION ( 'NONE',  ( -0.0000000000000000000, 1.000000000000000000, -0.0000000000000000000 ) ) ;
#314 = CARTESIAN_POINT ( 'NONE',  ( 414.0000000000000568, -0.7499999999999986677, -10.00000000000000000 ) ) ;
#315 = CARTESIAN_POINT ( 'NONE',  ( 414.0000000000000568, -0.7499999999999986677, -10.00000000000000000 ) ) ;
#316 = ORIENTED_EDGE ( 'NONE', *, *, #100, .F. ) ;
#317 = ORIENTED_EDGE ( 'NONE', *, *, #93, .T. ) ;
#318 = CARTESIAN_POINT ( 'NONE',  ( -6.000000000000000000, 2.000000000000001332, 0.0000000000000000000 ) ) ;
#319 = DIRECTION ( 'NONE',  ( -0.0000000000000000000, 1.000000000000000000, -0.0000000000000000000 ) ) ;
#320 = VERTEX_POINT ( 'NONE', #321 ) ;
#321 = CARTESIAN_POINT ( 'NONE',  ( -6.000000000000000000, -0.7499999999999986677, -22.00000000000000000 ) ) ;
#322 = LINE ( 'NONE', #269, #280 ) ;
#323 = DIRECTION ( 'NONE',  ( 1.000000000000000000, 0.0000000000000000000, 0.0000000000000000000 ) ) ;
#324 = PRODUCT_CONTEXT ( 'NONE', #36, 'mechanical' ) ;
#325 = LINE ( 'NONE', #150, #99 ) ;
#326 = EDGE_CURVE ( 'NONE', #6, #228, #142, .T. ) ;
#327 = ORIENTED_EDGE ( 'NONE', *, *, #259, .F. ) ;
#328 = PRESENTATION_LAYER_ASSIGNMENT (  '', '', ( #127 ) ) ;
#329 = ORIENTED_EDGE ( 'NONE', *, *, #178, .F. ) ;
#330 = VECTOR ( 'NONE', #274, 1000.000000000000000 ) ;
#331 = PLANE ( 'NONE',  #190 ) ;
#332 = FACE_OUTER_BOUND ( 'NONE', #333, .T. ) ;
#333 = EDGE_LOOP ( 'NONE', ( #185, #152, #193, #205 ) ) ;
#334 = ORIENTED_EDGE ( 'NONE', *, *, #226, .T. ) ;
ENDSEC;
END-ISO-10303-21;
