ISO-10303-21;
HEADER;
FILE_DESCRIPTION (( 'STEP AP214' ),
    '1' );
FILE_NAME ('191778.STEP',
    '2020-02-13T11:11:58',
    ( '' ),
    ( '' ),
    'SwSTEP 2.0',
    'SolidWorks 2018',
    '' );
FILE_SCHEMA (( 'AUTOMOTIVE_DESIGN' ));
ENDSEC;

DATA;
#1 = DIRECTION ( 'NONE',  ( -0.0000000000000000000, -0.0000000000000000000, -1.000000000000000000 ) ) ;
#2 = EDGE_CURVE ( 'NONE', #217, #259, #158, .T. ) ;
#3 = PRODUCT_CONTEXT ( 'NONE', #294, 'mechanical' ) ;
#4 = MANIFOLD_SOLID_BREP ( 'Aufsatz-Linear austragen1', #73 ) ;
#5 = CARTESIAN_POINT ( 'NONE',  ( -6.000000000000000000, -1.999999999999998668, 0.0000000000000000000 ) ) ;
#6 = COLOUR_RGB ( '',0.7921568627450980005, 0.8196078431372548767, 0.9333333333333333481 ) ;
#7 = VERTEX_POINT ( 'NONE', #223 ) ;
#8 = DIRECTION ( 'NONE',  ( 1.000000000000000000, 0.0000000000000000000, 0.0000000000000000000 ) ) ;
#9 = ADVANCED_FACE ( 'NONE', ( #241 ), #225, .F. ) ;
#10 = DIRECTION ( 'NONE',  ( -0.0000000000000000000, 0.0000000000000000000, 1.000000000000000000 ) ) ;
#11 = CARTESIAN_POINT ( 'NONE',  ( 402.0000000000000000, -0.7499999999999986677, -10.00000000000000000 ) ) ;
#12 = ORIENTED_EDGE ( 'NONE', *, *, #23, .T. ) ;
#13 = VERTEX_POINT ( 'NONE', #157 ) ;
#14 = ORIENTED_EDGE ( 'NONE', *, *, #36, .T. ) ;
#15 = EDGE_CURVE ( 'NONE', #7, #314, #110, .T. ) ;
#16 = SURFACE_STYLE_FILL_AREA ( #243 ) ;
#17 = AXIS2_PLACEMENT_3D ( 'NONE', #277, #61, #33 ) ;
#18 = VERTEX_POINT ( 'NONE', #5 ) ;
#19 = EDGE_CURVE ( 'NONE', #129, #65, #172, .T. ) ;
#20 =( NAMED_UNIT ( * ) SI_UNIT ( $, .STERADIAN. ) SOLID_ANGLE_UNIT ( ) );
#21 = APPLICATION_PROTOCOL_DEFINITION ( 'draft international standard', 'automotive_design', 1998, #294 ) ;
#22 = SURFACE_STYLE_FILL_AREA ( #99 ) ;
#23 = EDGE_CURVE ( 'NONE', #96, #217, #244, .T. ) ;
#24 = EDGE_LOOP ( 'NONE', ( #289, #208, #249, #78 ) ) ;
#25 = CARTESIAN_POINT ( 'NONE',  ( -6.000000000000000000, 0.0000000000000000000, 0.0000000000000000000 ) ) ;
#26 = VECTOR ( 'NONE', #119, 1000.000000000000000 ) ;
#27 = ORIENTED_EDGE ( 'NONE', *, *, #131, .T. ) ;
#28 = DIRECTION ( 'NONE',  ( 0.0000000000000000000, 0.0000000000000000000, -1.000000000000000000 ) ) ;
#29 = VERTEX_POINT ( 'NONE', #87 ) ;
#30 = DIRECTION ( 'NONE',  ( -1.000000000000000000, 0.0000000000000000000, -0.0000000000000000000 ) ) ;
#31 = ADVANCED_FACE ( 'NONE', ( #77 ), #250, .F. ) ;
#32 = PLANE ( 'NONE',  #265 ) ;
#33 = DIRECTION ( 'NONE',  ( 0.0000000000000000000, 0.0000000000000000000, 1.000000000000000000 ) ) ;
#34 = PLANE ( 'NONE',  #17 ) ;
#35 = DIRECTION ( 'NONE',  ( 0.0000000000000000000, -1.000000000000000000, 0.0000000000000000000 ) ) ;
#36 = EDGE_CURVE ( 'NONE', #259, #209, #47, .T. ) ;
#37 = DIRECTION ( 'NONE',  ( 0.0000000000000000000, 0.0000000000000000000, 1.000000000000000000 ) ) ;
#38 = LINE ( 'NONE', #323, #300 ) ;
#39 = ORIENTED_EDGE ( 'NONE', *, *, #246, .F. ) ;
#40 = DIRECTION ( 'NONE',  ( 1.000000000000000000, 0.0000000000000000000, 0.0000000000000000000 ) ) ;
#41 = EDGE_CURVE ( 'NONE', #259, #319, #293, .T. ) ;
#42 = LINE ( 'NONE', #234, #165 ) ;
#43 = FACE_OUTER_BOUND ( 'NONE', #258, .T. ) ;
#44 = CARTESIAN_POINT ( 'NONE',  ( -6.000000000000000000, -1.999999999999998668, -10.00000000000000000 ) ) ;
#45 = ORIENTED_EDGE ( 'NONE', *, *, #252, .F. ) ;
#46 = CARTESIAN_POINT ( 'NONE',  ( -6.000000000000000000, 0.7500000000000013323, -10.00000000000000000 ) ) ;
#47 = LINE ( 'NONE', #130, #188 ) ;
#48 = ORIENTED_EDGE ( 'NONE', *, *, #290, .T. ) ;
#49 = VECTOR ( 'NONE', #106, 1000.000000000000000 ) ;
#50 = PRODUCT_DEFINITION_SHAPE ( 'NONE', 'NONE',  #215 ) ;
#51 = DIRECTION ( 'NONE',  ( -0.0000000000000000000, 1.000000000000000000, -0.0000000000000000000 ) ) ;
#52 = DIRECTION ( 'NONE',  ( 0.0000000000000000000, -1.000000000000000000, 0.0000000000000000000 ) ) ;
#53 = CARTESIAN_POINT ( 'NONE',  ( -6.000000000000000000, -0.7499999999999986677, -10.00000000000000000 ) ) ;
#54 = ORIENTED_EDGE ( 'NONE', *, *, #131, .F. ) ;
#55 = ADVANCED_FACE ( 'NONE', ( #64 ), #34, .F. ) ;
#56 = VERTEX_POINT ( 'NONE', #254 ) ;
#57 = ORIENTED_EDGE ( 'NONE', *, *, #85, .T. ) ;
#58 = CARTESIAN_POINT ( 'NONE',  ( 402.0000000000000000, 0.7500000000000013323, -22.00000000000000000 ) ) ;
#59 = ADVANCED_FACE ( 'NONE', ( #238 ), #228, .F. ) ;
#60 = PLANE ( 'NONE',  #309 ) ;
#61 = DIRECTION ( 'NONE',  ( -1.000000000000000000, 0.0000000000000000000, 0.0000000000000000000 ) ) ;
#62 = ADVANCED_FACE ( 'NONE', ( #320 ), #32, .F. ) ;
#63 = LINE ( 'NONE', #118, #81 ) ;
#64 = FACE_OUTER_BOUND ( 'NONE', #288, .T. ) ;
#65 = VERTEX_POINT ( 'NONE', #226 ) ;
#66 = DIRECTION ( 'NONE',  ( 1.000000000000000000, 0.0000000000000000000, -0.0000000000000000000 ) ) ;
#67 = CARTESIAN_POINT ( 'NONE',  ( -6.000000000000000000, 0.7500000000000013323, -22.00000000000000000 ) ) ;
#68 = PRODUCT ( '191778', '191778', '', ( #3 ) ) ;
#69 = ORIENTED_EDGE ( 'NONE', *, *, #296, .F. ) ;
#70 = ORIENTED_EDGE ( 'NONE', *, *, #143, .T. ) ;
#71 = EDGE_CURVE ( 'NONE', #302, #209, #161, .T. ) ;
#72 = ORIENTED_EDGE ( 'NONE', *, *, #15, .F. ) ;
#73 = CLOSED_SHELL ( 'NONE', ( #31, #62, #227, #9, #151, #175, #232, #59, #55, #333 ) ) ;
#74 = AXIS2_PLACEMENT_3D ( 'NONE', #262, #37, #66 ) ;
#75 = SURFACE_SIDE_STYLE ('',( #16 ) ) ;
#76 = VECTOR ( 'NONE', #92, 1000.000000000000000 ) ;
#77 = FACE_OUTER_BOUND ( 'NONE', #190, .T. ) ;
#78 = ORIENTED_EDGE ( 'NONE', *, *, #191, .F. ) ;
#79 = EDGE_LOOP ( 'NONE', ( #264, #126, #72, #54 ) ) ;
#80 = FILL_AREA_STYLE_COLOUR ( '', #322 ) ;
#81 = VECTOR ( 'NONE', #120, 1000.000000000000000 ) ;
#82 = MECHANICAL_DESIGN_GEOMETRIC_PRESENTATION_REPRESENTATION (  '', ( #292 ), #200 ) ;
#83 = DIRECTION ( 'NONE',  ( 0.0000000000000000000, 1.000000000000000000, 0.0000000000000000000 ) ) ;
#84 = CARTESIAN_POINT ( 'NONE',  ( 402.0000000000000000, -1.999999999999998668, 0.0000000000000000000 ) ) ;
#85 = EDGE_CURVE ( 'NONE', #56, #96, #100, .T. ) ;
#86 = DIRECTION ( 'NONE',  ( 0.0000000000000000000, 0.0000000000000000000, 1.000000000000000000 ) ) ;
#87 = CARTESIAN_POINT ( 'NONE',  ( -6.000000000000000000, 0.7500000000000013323, -22.00000000000000000 ) ) ;
#88 = DIRECTION ( 'NONE',  ( -1.000000000000000000, -0.0000000000000000000, -0.0000000000000000000 ) ) ;
#89 = CARTESIAN_POINT ( 'NONE',  ( -6.000000000000000000, -0.7499999999999986677, -10.00000000000000000 ) ) ;
#90 = AXIS2_PLACEMENT_3D ( 'NONE', #286, #159, #40 ) ;
#91 = APPLICATION_PROTOCOL_DEFINITION ( 'draft international standard', 'automotive_design', 1998, #176 ) ;
#92 = DIRECTION ( 'NONE',  ( 0.0000000000000000000, 0.0000000000000000000, 1.000000000000000000 ) ) ;
#93 = ORIENTED_EDGE ( 'NONE', *, *, #219, .F. ) ;
#94 = DIRECTION ( 'NONE',  ( 0.0000000000000000000, 1.000000000000000000, 0.0000000000000000000 ) ) ;
#95 = ORIENTED_EDGE ( 'NONE', *, *, #2, .F. ) ;
#96 = VERTEX_POINT ( 'NONE', #304 ) ;
#97 = LINE ( 'NONE', #67, #169 ) ;
#98 = AXIS2_PLACEMENT_3D ( 'NONE', #155, #280, #282 ) ;
#99 = FILL_AREA_STYLE ('',( #80 ) ) ;
#100 = LINE ( 'NONE', #171, #101 ) ;
#101 = VECTOR ( 'NONE', #52, 1000.000000000000000 ) ;
#102 = ORIENTED_EDGE ( 'NONE', *, *, #181, .F. ) ;
#103 = DIRECTION ( 'NONE',  ( 0.0000000000000000000, -0.0000000000000000000, 1.000000000000000000 ) ) ;
#104 = DIRECTION ( 'NONE',  ( -1.000000000000000000, -0.0000000000000000000, -0.0000000000000000000 ) ) ;
#105 = FACE_OUTER_BOUND ( 'NONE', #24, .T. ) ;
#106 = DIRECTION ( 'NONE',  ( 0.0000000000000000000, 0.0000000000000000000, -1.000000000000000000 ) ) ;
#107 = CARTESIAN_POINT ( 'NONE',  ( 402.0000000000000000, 2.000000000000001332, -10.00000000000000000 ) ) ;
#108 = PLANE ( 'NONE',  #115 ) ;
#109 = PRODUCT_DEFINITION_FORMATION_WITH_SPECIFIED_SOURCE ( 'ANY', '', #68, .NOT_KNOWN. ) ;
#110 = LINE ( 'NONE', #128, #197 ) ;
#111 = ORIENTED_EDGE ( 'NONE', *, *, #41, .T. ) ;
#112 = PRESENTATION_LAYER_ASSIGNMENT (  '', '', ( #292 ) ) ;
#113 = FACE_OUTER_BOUND ( 'NONE', #122, .T. ) ;
#114 = VECTOR ( 'NONE', #35, 1000.000000000000000 ) ;
#115 = AXIS2_PLACEMENT_3D ( 'NONE', #11, #10, #8 ) ;
#116 = CARTESIAN_POINT ( 'NONE',  ( 402.0000000000000000, 2.000000000000001332, 0.0000000000000000000 ) ) ;
#117 = PRODUCT_DEFINITION_CONTEXT ( 'detailed design', #176, 'design' ) ;
#118 = CARTESIAN_POINT ( 'NONE',  ( -6.000000000000000000, -1.999999999999998668, -10.00000000000000000 ) ) ;
#119 = DIRECTION ( 'NONE',  ( -1.000000000000000000, -0.0000000000000000000, -0.0000000000000000000 ) ) ;
#120 = DIRECTION ( 'NONE',  ( -0.0000000000000000000, -0.0000000000000000000, -1.000000000000000000 ) ) ;
#121 = VECTOR ( 'NONE', #104, 1000.000000000000000 ) ;
#122 = EDGE_LOOP ( 'NONE', ( #134, #48, #39, #69 ) ) ;
#123 = CARTESIAN_POINT ( 'NONE',  ( 402.0000000000000000, -0.7499999999999986677, -10.00000000000000000 ) ) ;
#124 = ADVANCED_BREP_SHAPE_REPRESENTATION ( '191778', ( #4, #141 ), #179 ) ;
#125 = LINE ( 'NONE', #187, #26 ) ;
#126 = ORIENTED_EDGE ( 'NONE', *, *, #181, .T. ) ;
#127 = LINE ( 'NONE', #167, #214 ) ;
#128 = CARTESIAN_POINT ( 'NONE',  ( 402.0000000000000000, 0.7500000000000013323, -10.00000000000000000 ) ) ;
#129 = VERTEX_POINT ( 'NONE', #279 ) ;
#130 = CARTESIAN_POINT ( 'NONE',  ( 402.0000000000000000, -0.7499999999999986677, -10.00000000000000000 ) ) ;
#131 = EDGE_CURVE ( 'NONE', #13, #7, #248, .T. ) ;
#132 = DIRECTION ( 'NONE',  ( -1.000000000000000000, -0.0000000000000000000, -0.0000000000000000000 ) ) ;
#133 = CARTESIAN_POINT ( 'NONE',  ( 402.0000000000000000, 2.000000000000001332, 0.0000000000000000000 ) ) ;
#134 = ORIENTED_EDGE ( 'NONE', *, *, #15, .T. ) ;
#135 = CARTESIAN_POINT ( 'NONE',  ( 402.0000000000000000, -1.999999999999998668, -10.00000000000000000 ) ) ;
#136 = PLANE ( 'NONE',  #90 ) ;
#137 = AXIS2_PLACEMENT_3D ( 'NONE', #133, #256, #30 ) ;
#138 = DIRECTION ( 'NONE',  ( 0.0000000000000000000, -0.0000000000000000000, -1.000000000000000000 ) ) ;
#139 = VECTOR ( 'NONE', #1, 1000.000000000000000 ) ;
#140 = ORIENTED_EDGE ( 'NONE', *, *, #312, .T. ) ;
#141 = AXIS2_PLACEMENT_3D ( 'NONE', #216, #287, #260 ) ;
#142 = ORIENTED_EDGE ( 'NONE', *, *, #296, .T. ) ;
#143 = EDGE_CURVE ( 'NONE', #96, #18, #182, .T. ) ;
#144 = DIRECTION ( 'NONE',  ( 0.0000000000000000000, 0.0000000000000000000, 1.000000000000000000 ) ) ;
#145 = VECTOR ( 'NONE', #148, 1000.000000000000000 ) ;
#146 = CARTESIAN_POINT ( 'NONE',  ( 402.0000000000000000, 2.000000000000001332, -10.00000000000000000 ) ) ;
#147 = EDGE_LOOP ( 'NONE', ( #321, #153, #308, #102, #193, #45, #163, #242 ) ) ;
#148 = DIRECTION ( 'NONE',  ( -0.0000000000000000000, 1.000000000000000000, -0.0000000000000000000 ) ) ;
#149 = EDGE_LOOP ( 'NONE', ( #245, #307, #295, #93 ) ) ;
#150 =( GEOMETRIC_REPRESENTATION_CONTEXT ( 3 ) GLOBAL_UNCERTAINTY_ASSIGNED_CONTEXT ( ( #266 ) ) GLOBAL_UNIT_ASSIGNED_CONTEXT ( ( #253, #154, #331 ) ) REPRESENTATION_CONTEXT ( 'NONE', 'WORKASPACE' ) );
#151 = ADVANCED_FACE ( 'NONE', ( #105 ), #257, .F. ) ;
#152 = VECTOR ( 'NONE', #269, 1000.000000000000000 ) ;
#153 = ORIENTED_EDGE ( 'NONE', *, *, #19, .F. ) ;
#154 =( NAMED_UNIT ( * ) PLANE_ANGLE_UNIT ( ) SI_UNIT ( $, .RADIAN. ) );
#155 = CARTESIAN_POINT ( 'NONE',  ( 402.0000000000000000, -0.7499999999999986677, -10.00000000000000000 ) ) ;
#156 = VECTOR ( 'NONE', #28, 1000.000000000000000 ) ;
#157 = CARTESIAN_POINT ( 'NONE',  ( 402.0000000000000000, 0.7500000000000013323, -22.00000000000000000 ) ) ;
#158 = LINE ( 'NONE', #194, #318 ) ;
#159 = DIRECTION ( 'NONE',  ( -0.0000000000000000000, 0.0000000000000000000, 1.000000000000000000 ) ) ;
#160 = ORIENTED_EDGE ( 'NONE', *, *, #198, .F. ) ;
#161 = LINE ( 'NONE', #53, #251 ) ;
#162 = EDGE_CURVE ( 'NONE', #65, #18, #229, .T. ) ;
#163 = ORIENTED_EDGE ( 'NONE', *, *, #71, .F. ) ;
#164 = CARTESIAN_POINT ( 'NONE',  ( -6.000000000000000000, 2.000000000000001332, -10.00000000000000000 ) ) ;
#165 = VECTOR ( 'NONE', #311, 1000.000000000000000 ) ;
#166 = VERTEX_POINT ( 'NONE', #284 ) ;
#167 = CARTESIAN_POINT ( 'NONE',  ( -6.000000000000000000, -0.7499999999999986677, -22.00000000000000000 ) ) ;
#168 = DIRECTION ( 'NONE',  ( 0.0000000000000000000, 1.000000000000000000, 0.0000000000000000000 ) ) ;
#169 = VECTOR ( 'NONE', #317, 1000.000000000000000 ) ;
#170 = VECTOR ( 'NONE', #334, 1000.000000000000000 ) ;
#171 = CARTESIAN_POINT ( 'NONE',  ( 402.0000000000000000, 2.000000000000001332, 0.0000000000000000000 ) ) ;
#172 = LINE ( 'NONE', #204, #170 ) ;
#173 = ORIENTED_EDGE ( 'NONE', *, *, #198, .T. ) ;
#174 = DIRECTION ( 'NONE',  ( -1.000000000000000000, -0.0000000000000000000, -0.0000000000000000000 ) ) ;
#175 = ADVANCED_FACE ( 'NONE', ( #326 ), #60, .F. ) ;
#176 = APPLICATION_CONTEXT ( 'automotive_design' ) ;
#177 = CARTESIAN_POINT ( 'NONE',  ( 402.0000000000000000, 2.000000000000001332, -10.00000000000000000 ) ) ;
#178 = PRESENTATION_STYLE_ASSIGNMENT (( #272 ) ) ;
#179 =( GEOMETRIC_REPRESENTATION_CONTEXT ( 3 ) GLOBAL_UNCERTAINTY_ASSIGNED_CONTEXT ( ( #285 ) ) GLOBAL_UNIT_ASSIGNED_CONTEXT ( ( #298, #297, #20 ) ) REPRESENTATION_CONTEXT ( 'NONE', 'WORKASPACE' ) );
#180 = SURFACE_STYLE_USAGE ( .BOTH. , #75 ) ;
#181 = EDGE_CURVE ( 'NONE', #29, #314, #97, .T. ) ;
#182 = LINE ( 'NONE', #84, #121 ) ;
#183 = SHAPE_DEFINITION_REPRESENTATION ( #50, #124 ) ;
#184 = ORIENTED_EDGE ( 'NONE', *, *, #85, .F. ) ;
#185 = DIRECTION ( 'NONE',  ( -1.000000000000000000, -0.0000000000000000000, -0.0000000000000000000 ) ) ;
#186 = FILL_AREA_STYLE_COLOUR ( '', #6 ) ;
#187 = CARTESIAN_POINT ( 'NONE',  ( 402.0000000000000000, 2.000000000000001332, -10.00000000000000000 ) ) ;
#188 = VECTOR ( 'NONE', #132, 1000.000000000000000 ) ;
#189 = ORIENTED_EDGE ( 'NONE', *, *, #41, .F. ) ;
#190 = EDGE_LOOP ( 'NONE', ( #140, #316, #278, #184 ) ) ;
#191 = EDGE_CURVE ( 'NONE', #319, #13, #299, .T. ) ;
#192 = LINE ( 'NONE', #146, #145 ) ;
#193 = ORIENTED_EDGE ( 'NONE', *, *, #305, .F. ) ;
#194 = CARTESIAN_POINT ( 'NONE',  ( 402.0000000000000000, -0.7499999999999986677, -10.00000000000000000 ) ) ;
#195 = VECTOR ( 'NONE', #88, 1000.000000000000000 ) ;
#196 = CARTESIAN_POINT ( 'NONE',  ( 402.0000000000000000, -0.7499999999999986677, -10.00000000000000000 ) ) ;
#197 = VECTOR ( 'NONE', #174, 1000.000000000000000 ) ;
#198 = EDGE_CURVE ( 'NONE', #217, #302, #42, .T. ) ;
#199 = CARTESIAN_POINT ( 'NONE',  ( 402.0000000000000000, -1.999999999999998668, -10.00000000000000000 ) ) ;
#200 =( GEOMETRIC_REPRESENTATION_CONTEXT ( 3 ) GLOBAL_UNCERTAINTY_ASSIGNED_CONTEXT ( ( #240 ) ) GLOBAL_UNIT_ASSIGNED_CONTEXT ( ( #236, #233, #313 ) ) REPRESENTATION_CONTEXT ( 'NONE', 'WORKASPACE' ) );
#201 = DIRECTION ( 'NONE',  ( 0.0000000000000000000, -1.000000000000000000, 0.0000000000000000000 ) ) ;
#202 = LINE ( 'NONE', #116, #152 ) ;
#203 = ORIENTED_EDGE ( 'NONE', *, *, #330, .T. ) ;
#204 = CARTESIAN_POINT ( 'NONE',  ( -6.000000000000000000, 2.000000000000001332, -10.00000000000000000 ) ) ;
#205 = CARTESIAN_POINT ( 'NONE',  ( 402.0000000000000000, 0.7500000000000013323, -22.00000000000000000 ) ) ;
#206 = DIRECTION ( 'NONE',  ( 0.0000000000000000000, -1.000000000000000000, 0.0000000000000000000 ) ) ;
#207 = LINE ( 'NONE', #177, #76 ) ;
#208 = ORIENTED_EDGE ( 'NONE', *, *, #305, .T. ) ;
#209 = VERTEX_POINT ( 'NONE', #89 ) ;
#210 = EDGE_CURVE ( 'NONE', #13, #29, #224, .T. ) ;
#211 = FACE_OUTER_BOUND ( 'NONE', #147, .T. ) ;
#212 = EDGE_LOOP ( 'NONE', ( #14, #268, #291, #189 ) ) ;
#213 = PLANE ( 'NONE',  #324 ) ;
#214 = VECTOR ( 'NONE', #168, 1000.000000000000000 ) ;
#215 = PRODUCT_DEFINITION ( 'UNKNOWN', '', #109, #117 ) ;
#216 = CARTESIAN_POINT ( 'NONE',  ( 0.0000000000000000000, 0.0000000000000000000, 0.0000000000000000000 ) ) ;
#217 = VERTEX_POINT ( 'NONE', #135 ) ;
#218 = DIRECTION ( 'NONE',  ( -1.000000000000000000, 0.0000000000000000000, 0.0000000000000000000 ) ) ;
#219 = EDGE_CURVE ( 'NONE', #328, #56, #207, .T. ) ;
#220 = VECTOR ( 'NONE', #327, 1000.000000000000000 ) ;
#221 = PRODUCT_RELATED_PRODUCT_CATEGORY ( 'part', '', ( #68 ) ) ;
#222 = EDGE_LOOP ( 'NONE', ( #70, #203, #160, #306 ) ) ;
#223 = CARTESIAN_POINT ( 'NONE',  ( 402.0000000000000000, 0.7500000000000013323, -10.00000000000000000 ) ) ;
#224 = LINE ( 'NONE', #235, #195 ) ;
#225 = PLANE ( 'NONE',  #98 ) ;
#226 = CARTESIAN_POINT ( 'NONE',  ( -6.000000000000000000, 2.000000000000001332, 0.0000000000000000000 ) ) ;
#227 = ADVANCED_FACE ( 'NONE', ( #43 ), #108, .F. ) ;
#228 = PLANE ( 'NONE',  #303 ) ;
#229 = LINE ( 'NONE', #315, #114 ) ;
#230 = ORIENTED_EDGE ( 'NONE', *, *, #71, .T. ) ;
#231 = CARTESIAN_POINT ( 'NONE',  ( 402.0000000000000000, -1.999999999999998668, -10.00000000000000000 ) ) ;
#232 = ADVANCED_FACE ( 'NONE', ( #113 ), #136, .F. ) ;
#233 =( NAMED_UNIT ( * ) PLANE_ANGLE_UNIT ( ) SI_UNIT ( $, .RADIAN. ) );
#234 = CARTESIAN_POINT ( 'NONE',  ( 402.0000000000000000, -1.999999999999998668, -10.00000000000000000 ) ) ;
#235 = CARTESIAN_POINT ( 'NONE',  ( 402.0000000000000000, 0.7500000000000013323, -22.00000000000000000 ) ) ;
#236 =( LENGTH_UNIT ( ) NAMED_UNIT ( * ) SI_UNIT ( .MILLI., .METRE. ) );
#237 = CARTESIAN_POINT ( 'NONE',  ( 402.0000000000000000, -0.7499999999999986677, -22.00000000000000000 ) ) ;
#238 = FACE_OUTER_BOUND ( 'NONE', #149, .T. ) ;
#239 = ORIENTED_EDGE ( 'NONE', *, *, #36, .F. ) ;
#240 = UNCERTAINTY_MEASURE_WITH_UNIT (LENGTH_MEASURE( 1.000000000000000082E-05 ), #236, 'distance_accuracy_value', 'NONE');
#241 = FACE_OUTER_BOUND ( 'NONE', #212, .T. ) ;
#242 = ORIENTED_EDGE ( 'NONE', *, *, #330, .F. ) ;
#243 = FILL_AREA_STYLE ('',( #186 ) ) ;
#244 = LINE ( 'NONE', #231, #139 ) ;
#245 = ORIENTED_EDGE ( 'NONE', *, *, #246, .T. ) ;
#246 = EDGE_CURVE ( 'NONE', #328, #129, #125, .T. ) ;
#247 = SURFACE_SIDE_STYLE ('',( #22 ) ) ;
#248 = LINE ( 'NONE', #58, #332 ) ;
#249 = ORIENTED_EDGE ( 'NONE', *, *, #210, .F. ) ;
#250 = PLANE ( 'NONE',  #137 ) ;
#251 = VECTOR ( 'NONE', #281, 1000.000000000000000 ) ;
#252 = EDGE_CURVE ( 'NONE', #209, #166, #276, .T. ) ;
#253 =( LENGTH_UNIT ( ) NAMED_UNIT ( * ) SI_UNIT ( .MILLI., .METRE. ) );
#254 = CARTESIAN_POINT ( 'NONE',  ( 402.0000000000000000, 2.000000000000001332, 0.0000000000000000000 ) ) ;
#255 = PRESENTATION_LAYER_ASSIGNMENT (  '', '', ( #267 ) ) ;
#256 = DIRECTION ( 'NONE',  ( 0.0000000000000000000, 0.0000000000000000000, -1.000000000000000000 ) ) ;
#257 = PLANE ( 'NONE',  #74 ) ;
#258 = EDGE_LOOP ( 'NONE', ( #173, #230, #239, #95 ) ) ;
#259 = VERTEX_POINT ( 'NONE', #123 ) ;
#260 = DIRECTION ( 'NONE',  ( 1.000000000000000000, 0.0000000000000000000, 0.0000000000000000000 ) ) ;
#261 = CARTESIAN_POINT ( 'NONE',  ( -6.000000000000000000, -0.7499999999999986677, -10.00000000000000000 ) ) ;
#262 = CARTESIAN_POINT ( 'NONE',  ( 402.0000000000000000, -0.7499999999999986677, -22.00000000000000000 ) ) ;
#263 = LINE ( 'NONE', #164, #220 ) ;
#264 = ORIENTED_EDGE ( 'NONE', *, *, #210, .T. ) ;
#265 = AXIS2_PLACEMENT_3D ( 'NONE', #199, #83, #103 ) ;
#266 = UNCERTAINTY_MEASURE_WITH_UNIT (LENGTH_MEASURE( 1.000000000000000082E-05 ), #253, 'distance_accuracy_value', 'NONE');
#267 = STYLED_ITEM ( 'NONE', ( #178 ), #4 ) ;
#268 = ORIENTED_EDGE ( 'NONE', *, *, #252, .T. ) ;
#269 = DIRECTION ( 'NONE',  ( -1.000000000000000000, -0.0000000000000000000, -0.0000000000000000000 ) ) ;
#270 = ORIENTED_EDGE ( 'NONE', *, *, #2, .T. ) ;
#271 = CARTESIAN_POINT ( 'NONE',  ( 402.0000000000000000, -0.7499999999999986677, -22.00000000000000000 ) ) ;
#272 = SURFACE_STYLE_USAGE ( .BOTH. , #247 ) ;
#273 = MECHANICAL_DESIGN_GEOMETRIC_PRESENTATION_REPRESENTATION (  '', ( #267 ), #150 ) ;
#274 = PRESENTATION_STYLE_ASSIGNMENT (( #180 ) ) ;
#275 = ORIENTED_EDGE ( 'NONE', *, *, #191, .T. ) ;
#276 = LINE ( 'NONE', #261, #156 ) ;
#277 = CARTESIAN_POINT ( 'NONE',  ( 402.0000000000000000, 0.0000000000000000000, 0.0000000000000000000 ) ) ;
#278 = ORIENTED_EDGE ( 'NONE', *, *, #143, .F. ) ;
#279 = CARTESIAN_POINT ( 'NONE',  ( -6.000000000000000000, 2.000000000000001332, -10.00000000000000000 ) ) ;
#280 = DIRECTION ( 'NONE',  ( -0.0000000000000000000, 1.000000000000000000, 0.0000000000000000000 ) ) ;
#281 = DIRECTION ( 'NONE',  ( -0.0000000000000000000, 1.000000000000000000, -0.0000000000000000000 ) ) ;
#282 = DIRECTION ( 'NONE',  ( 0.0000000000000000000, -0.0000000000000000000, 1.000000000000000000 ) ) ;
#283 = ORIENTED_EDGE ( 'NONE', *, *, #219, .T. ) ;
#284 = CARTESIAN_POINT ( 'NONE',  ( -6.000000000000000000, -0.7499999999999986677, -22.00000000000000000 ) ) ;
#285 = UNCERTAINTY_MEASURE_WITH_UNIT (LENGTH_MEASURE( 1.000000000000000082E-05 ), #298, 'distance_accuracy_value', 'NONE');
#286 = CARTESIAN_POINT ( 'NONE',  ( 402.0000000000000000, 2.000000000000001332, -10.00000000000000000 ) ) ;
#287 = DIRECTION ( 'NONE',  ( 0.0000000000000000000, 0.0000000000000000000, 1.000000000000000000 ) ) ;
#288 = EDGE_LOOP ( 'NONE', ( #57, #12, #270, #111, #275, #27, #142, #283 ) ) ;
#289 = ORIENTED_EDGE ( 'NONE', *, *, #329, .T. ) ;
#290 = EDGE_CURVE ( 'NONE', #314, #129, #263, .T. ) ;
#291 = ORIENTED_EDGE ( 'NONE', *, *, #329, .F. ) ;
#292 = STYLED_ITEM ( 'NONE', ( #274 ), #124 ) ;
#293 = LINE ( 'NONE', #196, #49 ) ;
#294 = APPLICATION_CONTEXT ( 'automotive_design' ) ;
#295 = ORIENTED_EDGE ( 'NONE', *, *, #312, .F. ) ;
#296 = EDGE_CURVE ( 'NONE', #7, #328, #192, .T. ) ;
#297 =( NAMED_UNIT ( * ) PLANE_ANGLE_UNIT ( ) SI_UNIT ( $, .RADIAN. ) );
#298 =( LENGTH_UNIT ( ) NAMED_UNIT ( * ) SI_UNIT ( .MILLI., .METRE. ) );
#299 = LINE ( 'NONE', #237, #301 ) ;
#300 = VECTOR ( 'NONE', #185, 1000.000000000000000 ) ;
#301 = VECTOR ( 'NONE', #94, 1000.000000000000000 ) ;
#302 = VERTEX_POINT ( 'NONE', #44 ) ;
#303 = AXIS2_PLACEMENT_3D ( 'NONE', #107, #201, #310 ) ;
#304 = CARTESIAN_POINT ( 'NONE',  ( 402.0000000000000000, -1.999999999999998668, 0.0000000000000000000 ) ) ;
#305 = EDGE_CURVE ( 'NONE', #166, #29, #127, .T. ) ;
#306 = ORIENTED_EDGE ( 'NONE', *, *, #23, .F. ) ;
#307 = ORIENTED_EDGE ( 'NONE', *, *, #19, .T. ) ;
#308 = ORIENTED_EDGE ( 'NONE', *, *, #290, .F. ) ;
#309 = AXIS2_PLACEMENT_3D ( 'NONE', #205, #206, #138 ) ;
#310 = DIRECTION ( 'NONE',  ( 0.0000000000000000000, -0.0000000000000000000, -1.000000000000000000 ) ) ;
#311 = DIRECTION ( 'NONE',  ( -1.000000000000000000, -0.0000000000000000000, -0.0000000000000000000 ) ) ;
#312 = EDGE_CURVE ( 'NONE', #56, #65, #202, .T. ) ;
#313 =( NAMED_UNIT ( * ) SI_UNIT ( $, .STERADIAN. ) SOLID_ANGLE_UNIT ( ) );
#314 = VERTEX_POINT ( 'NONE', #46 ) ;
#315 = CARTESIAN_POINT ( 'NONE',  ( -6.000000000000000000, 2.000000000000001332, 0.0000000000000000000 ) ) ;
#316 = ORIENTED_EDGE ( 'NONE', *, *, #162, .T. ) ;
#317 = DIRECTION ( 'NONE',  ( 0.0000000000000000000, 0.0000000000000000000, 1.000000000000000000 ) ) ;
#318 = VECTOR ( 'NONE', #51, 1000.000000000000000 ) ;
#319 = VERTEX_POINT ( 'NONE', #271 ) ;
#320 = FACE_OUTER_BOUND ( 'NONE', #222, .T. ) ;
#321 = ORIENTED_EDGE ( 'NONE', *, *, #162, .F. ) ;
#322 = COLOUR_RGB ( '',0.7921568627450980005, 0.8196078431372548767, 0.9333333333333333481 ) ;
#323 = CARTESIAN_POINT ( 'NONE',  ( 402.0000000000000000, -0.7499999999999986677, -22.00000000000000000 ) ) ;
#324 = AXIS2_PLACEMENT_3D ( 'NONE', #25, #218, #144 ) ;
#325 = CARTESIAN_POINT ( 'NONE',  ( 402.0000000000000000, 2.000000000000001332, -10.00000000000000000 ) ) ;
#326 = FACE_OUTER_BOUND ( 'NONE', #79, .T. ) ;
#327 = DIRECTION ( 'NONE',  ( -0.0000000000000000000, 1.000000000000000000, -0.0000000000000000000 ) ) ;
#328 = VERTEX_POINT ( 'NONE', #325 ) ;
#329 = EDGE_CURVE ( 'NONE', #319, #166, #38, .T. ) ;
#330 = EDGE_CURVE ( 'NONE', #18, #302, #63, .T. ) ;
#331 =( NAMED_UNIT ( * ) SI_UNIT ( $, .STERADIAN. ) SOLID_ANGLE_UNIT ( ) );
#332 = VECTOR ( 'NONE', #86, 1000.000000000000000 ) ;
#333 = ADVANCED_FACE ( 'NONE', ( #211 ), #213, .T. ) ;
#334 = DIRECTION ( 'NONE',  ( 0.0000000000000000000, 0.0000000000000000000, 1.000000000000000000 ) ) ;
ENDSEC;
END-ISO-10303-21;
