ISO-10303-21;
HEADER;
FILE_DESCRIPTION (( 'STEP AP214' ),
    '1' );
FILE_NAME ('191777.STEP',
    '2020-02-13T11:10:49',
    ( '' ),
    ( '' ),
    'SwSTEP 2.0',
    'SolidWorks 2018',
    '' );
FILE_SCHEMA (( 'AUTOMOTIVE_DESIGN' ));
ENDSEC;

DATA;
#1 = DIRECTION ( 'NONE',  ( 0.0000000000000000000, -0.0000000000000000000, 1.000000000000000000 ) ) ;
#2 = CARTESIAN_POINT ( 'NONE',  ( 390.0000000000000000, 2.000000000000001332, -10.00000000000000000 ) ) ;
#3 = LINE ( 'NONE', #218, #216 ) ;
#4 = VERTEX_POINT ( 'NONE', #252 ) ;
#5 = VECTOR ( 'NONE', #254, 1000.000000000000000 ) ;
#6 = PLANE ( 'NONE',  #235 ) ;
#7 = FILL_AREA_STYLE ('',( #172 ) ) ;
#8 = VERTEX_POINT ( 'NONE', #276 ) ;
#9 = COLOUR_RGB ( '',0.7921568627450980005, 0.8196078431372548767, 0.9333333333333333481 ) ;
#10 = VERTEX_POINT ( 'NONE', #251 ) ;
#11 = DIRECTION ( 'NONE',  ( 1.000000000000000000, 0.0000000000000000000, 0.0000000000000000000 ) ) ;
#12 = CARTESIAN_POINT ( 'NONE',  ( 390.0000000000000000, 0.7500000000000013323, -22.00000000000000000 ) ) ;
#13 = MANIFOLD_SOLID_BREP ( 'Aufsatz-Linear austragen1', #282 ) ;
#14 = CARTESIAN_POINT ( 'NONE',  ( 390.0000000000000000, -1.999999999999998668, -10.00000000000000000 ) ) ;
#15 = DIRECTION ( 'NONE',  ( 0.0000000000000000000, -1.000000000000000000, 0.0000000000000000000 ) ) ;
#16 = ADVANCED_FACE ( 'NONE', ( #112 ), #70, .F. ) ;
#17 = EDGE_CURVE ( 'NONE', #66, #65, #330, .T. ) ;
#18 = VERTEX_POINT ( 'NONE', #250 ) ;
#19 = ORIENTED_EDGE ( 'NONE', *, *, #205, .T. ) ;
#20 = PLANE ( 'NONE',  #90 ) ;
#21 = DIRECTION ( 'NONE',  ( -0.0000000000000000000, 1.000000000000000000, -0.0000000000000000000 ) ) ;
#22 = AXIS2_PLACEMENT_3D ( 'NONE', #2, #170, #278 ) ;
#23 =( NAMED_UNIT ( * ) PLANE_ANGLE_UNIT ( ) SI_UNIT ( $, .RADIAN. ) );
#24 = DIRECTION ( 'NONE',  ( 0.0000000000000000000, -0.0000000000000000000, 1.000000000000000000 ) ) ;
#25 = CARTESIAN_POINT ( 'NONE',  ( 390.0000000000000000, -0.7499999999999986677, -22.00000000000000000 ) ) ;
#26 = ADVANCED_FACE ( 'NONE', ( #243 ), #103, .F. ) ;
#27 = EDGE_CURVE ( 'NONE', #214, #72, #109, .T. ) ;
#28 =( GEOMETRIC_REPRESENTATION_CONTEXT ( 3 ) GLOBAL_UNCERTAINTY_ASSIGNED_CONTEXT ( ( #191 ) ) GLOBAL_UNIT_ASSIGNED_CONTEXT ( ( #40, #119, #245 ) ) REPRESENTATION_CONTEXT ( 'NONE', 'WORKASPACE' ) );
#29 = ORIENTED_EDGE ( 'NONE', *, *, #236, .T. ) ;
#30 = LINE ( 'NONE', #139, #256 ) ;
#31 = CARTESIAN_POINT ( 'NONE',  ( 390.0000000000000000, 2.000000000000001332, 0.0000000000000000000 ) ) ;
#32 = EDGE_CURVE ( 'NONE', #72, #108, #296, .T. ) ;
#33 = DIRECTION ( 'NONE',  ( 0.0000000000000000000, 0.0000000000000000000, 1.000000000000000000 ) ) ;
#34 =( LENGTH_UNIT ( ) NAMED_UNIT ( * ) SI_UNIT ( .MILLI., .METRE. ) );
#35 = PRODUCT_RELATED_PRODUCT_CATEGORY ( 'part', '', ( #313 ) ) ;
#36 = DIRECTION ( 'NONE',  ( -0.0000000000000000000, -0.0000000000000000000, -1.000000000000000000 ) ) ;
#37 = LINE ( 'NONE', #195, #241 ) ;
#38 = SURFACE_STYLE_FILL_AREA ( #7 ) ;
#39 = LINE ( 'NONE', #279, #222 ) ;
#40 =( LENGTH_UNIT ( ) NAMED_UNIT ( * ) SI_UNIT ( .MILLI., .METRE. ) );
#41 = DIRECTION ( 'NONE',  ( 0.0000000000000000000, 0.0000000000000000000, -1.000000000000000000 ) ) ;
#42 = LINE ( 'NONE', #206, #5 ) ;
#43 = CARTESIAN_POINT ( 'NONE',  ( -6.000000000000000000, 2.000000000000001332, -10.00000000000000000 ) ) ;
#44 = CARTESIAN_POINT ( 'NONE',  ( 390.0000000000000000, 0.7500000000000013323, -22.00000000000000000 ) ) ;
#45 = EDGE_LOOP ( 'NONE', ( #101, #286, #132, #323 ) ) ;
#46 = EDGE_CURVE ( 'NONE', #214, #10, #238, .T. ) ;
#47 = CARTESIAN_POINT ( 'NONE',  ( 390.0000000000000000, 2.000000000000001332, -10.00000000000000000 ) ) ;
#48 = CARTESIAN_POINT ( 'NONE',  ( -6.000000000000000000, -1.999999999999998668, -10.00000000000000000 ) ) ;
#49 = CARTESIAN_POINT ( 'NONE',  ( 390.0000000000000000, -0.7499999999999986677, -10.00000000000000000 ) ) ;
#50 = DIRECTION ( 'NONE',  ( 0.0000000000000000000, 0.0000000000000000000, 1.000000000000000000 ) ) ;
#51 = PLANE ( 'NONE',  #22 ) ;
#52 = DIRECTION ( 'NONE',  ( 0.0000000000000000000, -0.0000000000000000000, -1.000000000000000000 ) ) ;
#53 = EDGE_LOOP ( 'NONE', ( #271, #110, #312, #71 ) ) ;
#54 = EDGE_CURVE ( 'NONE', #198, #257, #152, .T. ) ;
#55 = EDGE_CURVE ( 'NONE', #60, #262, #160, .T. ) ;
#56 = VECTOR ( 'NONE', #154, 1000.000000000000000 ) ;
#57 = ORIENTED_EDGE ( 'NONE', *, *, #189, .F. ) ;
#58 = EDGE_CURVE ( 'NONE', #262, #198, #285, .T. ) ;
#59 = STYLED_ITEM ( 'NONE', ( #100 ), #13 ) ;
#60 = VERTEX_POINT ( 'NONE', #202 ) ;
#61 = DIRECTION ( 'NONE',  ( 0.0000000000000000000, 0.0000000000000000000, 1.000000000000000000 ) ) ;
#62 = LINE ( 'NONE', #325, #67 ) ;
#63 = EDGE_LOOP ( 'NONE', ( #273, #327, #77, #115 ) ) ;
#64 = DIRECTION ( 'NONE',  ( 0.0000000000000000000, 0.0000000000000000000, 1.000000000000000000 ) ) ;
#65 = VERTEX_POINT ( 'NONE', #232 ) ;
#66 = VERTEX_POINT ( 'NONE', #295 ) ;
#67 = VECTOR ( 'NONE', #126, 1000.000000000000000 ) ;
#68 = CARTESIAN_POINT ( 'NONE',  ( -6.000000000000000000, -0.7499999999999986677, -10.00000000000000000 ) ) ;
#69 =( LENGTH_UNIT ( ) NAMED_UNIT ( * ) SI_UNIT ( .MILLI., .METRE. ) );
#70 = PLANE ( 'NONE',  #117 ) ;
#71 = ORIENTED_EDGE ( 'NONE', *, *, #219, .F. ) ;
#72 = VERTEX_POINT ( 'NONE', #281 ) ;
#73 = ORIENTED_EDGE ( 'NONE', *, *, #27, .T. ) ;
#74 = VECTOR ( 'NONE', #258, 1000.000000000000000 ) ;
#75 = UNCERTAINTY_MEASURE_WITH_UNIT (LENGTH_MEASURE( 1.000000000000000082E-05 ), #34, 'distance_accuracy_value', 'NONE');
#76 = PRESENTATION_LAYER_ASSIGNMENT (  '', '', ( #59 ) ) ;
#77 = ORIENTED_EDGE ( 'NONE', *, *, #114, .F. ) ;
#78 = CARTESIAN_POINT ( 'NONE',  ( -6.000000000000000000, -1.999999999999998668, -10.00000000000000000 ) ) ;
#79 = CARTESIAN_POINT ( 'NONE',  ( 390.0000000000000000, 2.000000000000001332, -10.00000000000000000 ) ) ;
#80 = PLANE ( 'NONE',  #186 ) ;
#81 = VECTOR ( 'NONE', #125, 1000.000000000000000 ) ;
#82 = EDGE_CURVE ( 'NONE', #4, #262, #39, .T. ) ;
#83 = ORIENTED_EDGE ( 'NONE', *, *, #55, .T. ) ;
#84 = COLOUR_RGB ( '',0.7921568627450980005, 0.8196078431372548767, 0.9333333333333333481 ) ;
#85 = ORIENTED_EDGE ( 'NONE', *, *, #166, .F. ) ;
#86 = CARTESIAN_POINT ( 'NONE',  ( -6.000000000000000000, -0.7499999999999986677, -10.00000000000000000 ) ) ;
#87 = ORIENTED_EDGE ( 'NONE', *, *, #205, .F. ) ;
#88 = VERTEX_POINT ( 'NONE', #226 ) ;
#89 = FACE_OUTER_BOUND ( 'NONE', #307, .T. ) ;
#90 = AXIS2_PLACEMENT_3D ( 'NONE', #298, #179, #184 ) ;
#91 = DIRECTION ( 'NONE',  ( 0.0000000000000000000, 0.0000000000000000000, 1.000000000000000000 ) ) ;
#92 = VECTOR ( 'NONE', #41, 1000.000000000000000 ) ;
#93 = PRODUCT_DEFINITION_CONTEXT ( 'detailed design', #293, 'design' ) ;
#94 =( NAMED_UNIT ( * ) PLANE_ANGLE_UNIT ( ) SI_UNIT ( $, .RADIAN. ) );
#95 = EDGE_CURVE ( 'NONE', #66, #257, #304, .T. ) ;
#96 = PLANE ( 'NONE',  #239 ) ;
#97 = ORIENTED_EDGE ( 'NONE', *, *, #266, .T. ) ;
#98 =( GEOMETRIC_REPRESENTATION_CONTEXT ( 3 ) GLOBAL_UNCERTAINTY_ASSIGNED_CONTEXT ( ( #75 ) ) GLOBAL_UNIT_ASSIGNED_CONTEXT ( ( #34, #94, #196 ) ) REPRESENTATION_CONTEXT ( 'NONE', 'WORKASPACE' ) );
#99 = VECTOR ( 'NONE', #21, 1000.000000000000000 ) ;
#100 = PRESENTATION_STYLE_ASSIGNMENT (( #322 ) ) ;
#101 = ORIENTED_EDGE ( 'NONE', *, *, #308, .T. ) ;
#102 = DIRECTION ( 'NONE',  ( 0.0000000000000000000, 0.0000000000000000000, 1.000000000000000000 ) ) ;
#103 = PLANE ( 'NONE',  #208 ) ;
#104 = ORIENTED_EDGE ( 'NONE', *, *, #114, .T. ) ;
#105 = DIRECTION ( 'NONE',  ( 0.0000000000000000000, 0.0000000000000000000, 1.000000000000000000 ) ) ;
#106 = VECTOR ( 'NONE', #36, 1000.000000000000000 ) ;
#107 = ADVANCED_FACE ( 'NONE', ( #89 ), #96, .F. ) ;
#108 = VERTEX_POINT ( 'NONE', #249 ) ;
#109 = LINE ( 'NONE', #12, #180 ) ;
#110 = ORIENTED_EDGE ( 'NONE', *, *, #58, .T. ) ;
#111 = FACE_OUTER_BOUND ( 'NONE', #161, .T. ) ;
#112 = FACE_OUTER_BOUND ( 'NONE', #301, .T. ) ;
#113 = DIRECTION ( 'NONE',  ( 0.0000000000000000000, 1.000000000000000000, 0.0000000000000000000 ) ) ;
#114 = EDGE_CURVE ( 'NONE', #65, #8, #137, .T. ) ;
#115 = ORIENTED_EDGE ( 'NONE', *, *, #17, .F. ) ;
#116 = AXIS2_PLACEMENT_3D ( 'NONE', #122, #91, #11 ) ;
#117 = AXIS2_PLACEMENT_3D ( 'NONE', #148, #209, #182 ) ;
#118 = DIRECTION ( 'NONE',  ( -0.0000000000000000000, 1.000000000000000000, -0.0000000000000000000 ) ) ;
#119 =( NAMED_UNIT ( * ) PLANE_ANGLE_UNIT ( ) SI_UNIT ( $, .RADIAN. ) );
#120 = ORIENTED_EDGE ( 'NONE', *, *, #156, .F. ) ;
#121 = EDGE_CURVE ( 'NONE', #10, #108, #269, .T. ) ;
#122 = CARTESIAN_POINT ( 'NONE',  ( 0.0000000000000000000, 0.0000000000000000000, 0.0000000000000000000 ) ) ;
#123 = APPLICATION_PROTOCOL_DEFINITION ( 'draft international standard', 'automotive_design', 1998, #293 ) ;
#124 = LINE ( 'NONE', #43, #215 ) ;
#125 = DIRECTION ( 'NONE',  ( -1.000000000000000000, -0.0000000000000000000, -0.0000000000000000000 ) ) ;
#126 = DIRECTION ( 'NONE',  ( 0.0000000000000000000, 0.0000000000000000000, -1.000000000000000000 ) ) ;
#127 = SURFACE_SIDE_STYLE ('',( #229 ) ) ;
#128 =( NAMED_UNIT ( * ) SI_UNIT ( $, .STERADIAN. ) SOLID_ANGLE_UNIT ( ) );
#129 = VECTOR ( 'NONE', #212, 1000.000000000000000 ) ;
#130 = AXIS2_PLACEMENT_3D ( 'NONE', #14, #299, #24 ) ;
#131 = DIRECTION ( 'NONE',  ( -1.000000000000000000, -0.0000000000000000000, -0.0000000000000000000 ) ) ;
#132 = ORIENTED_EDGE ( 'NONE', *, *, #95, .F. ) ;
#133 = CARTESIAN_POINT ( 'NONE',  ( 390.0000000000000000, -0.7499999999999986677, -22.00000000000000000 ) ) ;
#134 = ORIENTED_EDGE ( 'NONE', *, *, #166, .T. ) ;
#135 = EDGE_CURVE ( 'NONE', #108, #203, #283, .T. ) ;
#136 = EDGE_CURVE ( 'NONE', #8, #10, #200, .T. ) ;
#137 = LINE ( 'NONE', #25, #56 ) ;
#138 = DIRECTION ( 'NONE',  ( 0.0000000000000000000, 0.0000000000000000000, 1.000000000000000000 ) ) ;
#139 = CARTESIAN_POINT ( 'NONE',  ( 390.0000000000000000, -0.7499999999999986677, -22.00000000000000000 ) ) ;
#140 = APPLICATION_CONTEXT ( 'automotive_design' ) ;
#141 = AXIS2_PLACEMENT_3D ( 'NONE', #207, #168, #1 ) ;
#142 = DIRECTION ( 'NONE',  ( -1.000000000000000000, 0.0000000000000000000, 0.0000000000000000000 ) ) ;
#143 = ORIENTED_EDGE ( 'NONE', *, *, #32, .F. ) ;
#144 = ORIENTED_EDGE ( 'NONE', *, *, #54, .F. ) ;
#145 = FACE_OUTER_BOUND ( 'NONE', #305, .T. ) ;
#146 = ADVANCED_FACE ( 'NONE', ( #175 ), #80, .F. ) ;
#147 = DIRECTION ( 'NONE',  ( -1.000000000000000000, -0.0000000000000000000, -0.0000000000000000000 ) ) ;
#148 = CARTESIAN_POINT ( 'NONE',  ( 390.0000000000000000, 2.000000000000001332, 0.0000000000000000000 ) ) ;
#149 = ADVANCED_FACE ( 'NONE', ( #145 ), #51, .F. ) ;
#150 = VECTOR ( 'NONE', #167, 1000.000000000000000 ) ;
#151 = DIRECTION ( 'NONE',  ( -1.000000000000000000, -0.0000000000000000000, -0.0000000000000000000 ) ) ;
#152 = LINE ( 'NONE', #68, #99 ) ;
#153 = CARTESIAN_POINT ( 'NONE',  ( -6.000000000000000000, 2.000000000000001332, 0.0000000000000000000 ) ) ;
#154 = DIRECTION ( 'NONE',  ( -1.000000000000000000, -0.0000000000000000000, -0.0000000000000000000 ) ) ;
#155 = DIRECTION ( 'NONE',  ( 0.0000000000000000000, -1.000000000000000000, 0.0000000000000000000 ) ) ;
#156 = EDGE_CURVE ( 'NONE', #257, #8, #62, .T. ) ;
#157 = LINE ( 'NONE', #287, #176 ) ;
#158 = EDGE_LOOP ( 'NONE', ( #267, #87, #329, #234, #244, #120, #144, #223 ) ) ;
#159 = PRESENTATION_LAYER_ASSIGNMENT (  '', '', ( #178 ) ) ;
#160 = LINE ( 'NONE', #153, #264 ) ;
#161 = EDGE_LOOP ( 'NONE', ( #272, #220, #303, #237, #97, #73, #192, #29 ) ) ;
#162 = MECHANICAL_DESIGN_GEOMETRIC_PRESENTATION_REPRESENTATION (  '', ( #178 ), #28 ) ;
#163 = VECTOR ( 'NONE', #118, 1000.000000000000000 ) ;
#164 = ORIENTED_EDGE ( 'NONE', *, *, #297, .F. ) ;
#165 = ADVANCED_BREP_SHAPE_REPRESENTATION ( '191777', ( #13, #116 ), #98 ) ;
#166 = EDGE_CURVE ( 'NONE', #194, #203, #316, .T. ) ;
#167 = DIRECTION ( 'NONE',  ( -1.000000000000000000, -0.0000000000000000000, -0.0000000000000000000 ) ) ;
#168 = DIRECTION ( 'NONE',  ( -0.0000000000000000000, 1.000000000000000000, 0.0000000000000000000 ) ) ;
#169 = VECTOR ( 'NONE', #294, 1000.000000000000000 ) ;
#170 = DIRECTION ( 'NONE',  ( 0.0000000000000000000, -1.000000000000000000, 0.0000000000000000000 ) ) ;
#171 = DIRECTION ( 'NONE',  ( 1.000000000000000000, 0.0000000000000000000, -0.0000000000000000000 ) ) ;
#172 = FILL_AREA_STYLE_COLOUR ( '', #9 ) ;
#173 = LINE ( 'NONE', #31, #150 ) ;
#174 = ORIENTED_EDGE ( 'NONE', *, *, #46, .F. ) ;
#175 = FACE_OUTER_BOUND ( 'NONE', #247, .T. ) ;
#176 = VECTOR ( 'NONE', #147, 1000.000000000000000 ) ;
#177 = DIRECTION ( 'NONE',  ( -0.0000000000000000000, -0.0000000000000000000, -1.000000000000000000 ) ) ;
#178 = STYLED_ITEM ( 'NONE', ( #259 ), #165 ) ;
#179 = DIRECTION ( 'NONE',  ( -0.0000000000000000000, 0.0000000000000000000, 1.000000000000000000 ) ) ;
#180 = VECTOR ( 'NONE', #50, 1000.000000000000000 ) ;
#181 = CARTESIAN_POINT ( 'NONE',  ( 390.0000000000000000, 0.7500000000000013323, -22.00000000000000000 ) ) ;
#182 = DIRECTION ( 'NONE',  ( -1.000000000000000000, 0.0000000000000000000, -0.0000000000000000000 ) ) ;
#183 = ADVANCED_FACE ( 'NONE', ( #326 ), #20, .F. ) ;
#184 = DIRECTION ( 'NONE',  ( 1.000000000000000000, 0.0000000000000000000, 0.0000000000000000000 ) ) ;
#185 = ORIENTED_EDGE ( 'NONE', *, *, #331, .F. ) ;
#186 = AXIS2_PLACEMENT_3D ( 'NONE', #133, #61, #171 ) ;
#187 = CARTESIAN_POINT ( 'NONE',  ( 390.0000000000000000, -1.999999999999998668, -10.00000000000000000 ) ) ;
#188 = VECTOR ( 'NONE', #105, 1000.000000000000000 ) ;
#189 = EDGE_CURVE ( 'NONE', #72, #194, #42, .T. ) ;
#190 = FACE_OUTER_BOUND ( 'NONE', #158, .T. ) ;
#191 = UNCERTAINTY_MEASURE_WITH_UNIT (LENGTH_MEASURE( 1.000000000000000082E-05 ), #40, 'distance_accuracy_value', 'NONE');
#192 = ORIENTED_EDGE ( 'NONE', *, *, #189, .T. ) ;
#193 = CARTESIAN_POINT ( 'NONE',  ( 390.0000000000000000, -0.7499999999999986677, -10.00000000000000000 ) ) ;
#194 = VERTEX_POINT ( 'NONE', #47 ) ;
#195 = CARTESIAN_POINT ( 'NONE',  ( 390.0000000000000000, 2.000000000000001332, -10.00000000000000000 ) ) ;
#196 =( NAMED_UNIT ( * ) SI_UNIT ( $, .STERADIAN. ) SOLID_ANGLE_UNIT ( ) );
#197 = VECTOR ( 'NONE', #248, 1000.000000000000000 ) ;
#198 = VERTEX_POINT ( 'NONE', #78 ) ;
#199 = PRODUCT_DEFINITION_FORMATION_WITH_SPECIFIED_SOURCE ( 'ANY', '', #313, .NOT_KNOWN. ) ;
#200 = LINE ( 'NONE', #300, #129 ) ;
#201 = ORIENTED_EDGE ( 'NONE', *, *, #46, .T. ) ;
#202 = CARTESIAN_POINT ( 'NONE',  ( -6.000000000000000000, 2.000000000000001332, 0.0000000000000000000 ) ) ;
#203 = VERTEX_POINT ( 'NONE', #321 ) ;
#204 = ADVANCED_FACE ( 'NONE', ( #246 ), #231, .F. ) ;
#205 = EDGE_CURVE ( 'NONE', #203, #60, #124, .T. ) ;
#206 = CARTESIAN_POINT ( 'NONE',  ( 390.0000000000000000, 2.000000000000001332, -10.00000000000000000 ) ) ;
#207 = CARTESIAN_POINT ( 'NONE',  ( 390.0000000000000000, -0.7499999999999986677, -10.00000000000000000 ) ) ;
#208 = AXIS2_PLACEMENT_3D ( 'NONE', #79, #224, #320 ) ;
#209 = DIRECTION ( 'NONE',  ( 0.0000000000000000000, 0.0000000000000000000, -1.000000000000000000 ) ) ;
#210 = ORIENTED_EDGE ( 'NONE', *, *, #135, .T. ) ;
#211 = ORIENTED_EDGE ( 'NONE', *, *, #121, .T. ) ;
#212 = DIRECTION ( 'NONE',  ( 0.0000000000000000000, 1.000000000000000000, 0.0000000000000000000 ) ) ;
#213 = ORIENTED_EDGE ( 'NONE', *, *, #27, .F. ) ;
#214 = VERTEX_POINT ( 'NONE', #277 ) ;
#215 = VECTOR ( 'NONE', #102, 1000.000000000000000 ) ;
#216 = VECTOR ( 'NONE', #290, 1000.000000000000000 ) ;
#217 = AXIS2_PLACEMENT_3D ( 'NONE', #265, #306, #138 ) ;
#218 = CARTESIAN_POINT ( 'NONE',  ( 390.0000000000000000, 2.000000000000001332, 0.0000000000000000000 ) ) ;
#219 = EDGE_CURVE ( 'NONE', #4, #88, #302, .T. ) ;
#220 = ORIENTED_EDGE ( 'NONE', *, *, #219, .T. ) ;
#221 = ORIENTED_EDGE ( 'NONE', *, *, #82, .F. ) ;
#222 = VECTOR ( 'NONE', #151, 1000.000000000000000 ) ;
#223 = ORIENTED_EDGE ( 'NONE', *, *, #58, .F. ) ;
#224 = DIRECTION ( 'NONE',  ( -0.0000000000000000000, 0.0000000000000000000, 1.000000000000000000 ) ) ;
#225 =( GEOMETRIC_REPRESENTATION_CONTEXT ( 3 ) GLOBAL_UNCERTAINTY_ASSIGNED_CONTEXT ( ( #253 ) ) GLOBAL_UNIT_ASSIGNED_CONTEXT ( ( #69, #23, #128 ) ) REPRESENTATION_CONTEXT ( 'NONE', 'WORKASPACE' ) );
#226 = CARTESIAN_POINT ( 'NONE',  ( 390.0000000000000000, -1.999999999999998668, -10.00000000000000000 ) ) ;
#227 = ADVANCED_FACE ( 'NONE', ( #311 ), #289, .F. ) ;
#228 = CARTESIAN_POINT ( 'NONE',  ( 390.0000000000000000, 0.7500000000000013323, -10.00000000000000000 ) ) ;
#229 = SURFACE_STYLE_FILL_AREA ( #230 ) ;
#230 = FILL_AREA_STYLE ('',( #318 ) ) ;
#231 = PLANE ( 'NONE',  #130 ) ;
#232 = CARTESIAN_POINT ( 'NONE',  ( 390.0000000000000000, -0.7499999999999986677, -22.00000000000000000 ) ) ;
#233 = CARTESIAN_POINT ( 'NONE',  ( -6.000000000000000000, 2.000000000000001332, -10.00000000000000000 ) ) ;
#234 = ORIENTED_EDGE ( 'NONE', *, *, #121, .F. ) ;
#235 = AXIS2_PLACEMENT_3D ( 'NONE', #315, #142, #64 ) ;
#236 = EDGE_CURVE ( 'NONE', #194, #18, #37, .T. ) ;
#237 = ORIENTED_EDGE ( 'NONE', *, *, #17, .T. ) ;
#238 = LINE ( 'NONE', #181, #169 ) ;
#239 = AXIS2_PLACEMENT_3D ( 'NONE', #44, #155, #52 ) ;
#240 = PRODUCT_DEFINITION ( 'UNKNOWN', '', #199, #93 ) ;
#241 = VECTOR ( 'NONE', #33, 1000.000000000000000 ) ;
#242 = VECTOR ( 'NONE', #131, 1000.000000000000000 ) ;
#243 = FACE_OUTER_BOUND ( 'NONE', #260, .T. ) ;
#244 = ORIENTED_EDGE ( 'NONE', *, *, #136, .F. ) ;
#245 =( NAMED_UNIT ( * ) SI_UNIT ( $, .STERADIAN. ) SOLID_ANGLE_UNIT ( ) );
#246 = FACE_OUTER_BOUND ( 'NONE', #53, .T. ) ;
#247 = EDGE_LOOP ( 'NONE', ( #104, #332, #174, #334 ) ) ;
#248 = DIRECTION ( 'NONE',  ( -1.000000000000000000, -0.0000000000000000000, -0.0000000000000000000 ) ) ;
#249 = CARTESIAN_POINT ( 'NONE',  ( -6.000000000000000000, 0.7500000000000013323, -10.00000000000000000 ) ) ;
#250 = CARTESIAN_POINT ( 'NONE',  ( 390.0000000000000000, 2.000000000000001332, 0.0000000000000000000 ) ) ;
#251 = CARTESIAN_POINT ( 'NONE',  ( -6.000000000000000000, 0.7500000000000013323, -22.00000000000000000 ) ) ;
#252 = CARTESIAN_POINT ( 'NONE',  ( 390.0000000000000000, -1.999999999999998668, 0.0000000000000000000 ) ) ;
#253 = UNCERTAINTY_MEASURE_WITH_UNIT (LENGTH_MEASURE( 1.000000000000000082E-05 ), #69, 'distance_accuracy_value', 'NONE');
#254 = DIRECTION ( 'NONE',  ( -0.0000000000000000000, 1.000000000000000000, -0.0000000000000000000 ) ) ;
#255 = CARTESIAN_POINT ( 'NONE',  ( 390.0000000000000000, -0.7499999999999986677, -10.00000000000000000 ) ) ;
#256 = VECTOR ( 'NONE', #113, 1000.000000000000000 ) ;
#257 = VERTEX_POINT ( 'NONE', #86 ) ;
#258 = DIRECTION ( 'NONE',  ( -0.0000000000000000000, 1.000000000000000000, -0.0000000000000000000 ) ) ;
#259 = PRESENTATION_STYLE_ASSIGNMENT (( #288 ) ) ;
#260 = EDGE_LOOP ( 'NONE', ( #333, #210, #85, #57 ) ) ;
#261 = CARTESIAN_POINT ( 'NONE',  ( -6.000000000000000000, -1.999999999999998668, 0.0000000000000000000 ) ) ;
#262 = VERTEX_POINT ( 'NONE', #261 ) ;
#263 = ORIENTED_EDGE ( 'NONE', *, *, #236, .F. ) ;
#264 = VECTOR ( 'NONE', #15, 1000.000000000000000 ) ;
#265 = CARTESIAN_POINT ( 'NONE',  ( 390.0000000000000000, 0.0000000000000000000, 0.0000000000000000000 ) ) ;
#266 = EDGE_CURVE ( 'NONE', #65, #214, #30, .T. ) ;
#267 = ORIENTED_EDGE ( 'NONE', *, *, #55, .F. ) ;
#268 = SURFACE_SIDE_STYLE ('',( #38 ) ) ;
#269 = LINE ( 'NONE', #328, #188 ) ;
#270 = PRODUCT_CONTEXT ( 'NONE', #140, 'mechanical' ) ;
#271 = ORIENTED_EDGE ( 'NONE', *, *, #82, .T. ) ;
#272 = ORIENTED_EDGE ( 'NONE', *, *, #331, .T. ) ;
#273 = ORIENTED_EDGE ( 'NONE', *, *, #95, .T. ) ;
#274 = ADVANCED_FACE ( 'NONE', ( #111 ), #309, .F. ) ;
#275 = MECHANICAL_DESIGN_GEOMETRIC_PRESENTATION_REPRESENTATION (  '', ( #59 ), #225 ) ;
#276 = CARTESIAN_POINT ( 'NONE',  ( -6.000000000000000000, -0.7499999999999986677, -22.00000000000000000 ) ) ;
#277 = CARTESIAN_POINT ( 'NONE',  ( 390.0000000000000000, 0.7500000000000013323, -22.00000000000000000 ) ) ;
#278 = DIRECTION ( 'NONE',  ( 0.0000000000000000000, -0.0000000000000000000, -1.000000000000000000 ) ) ;
#279 = CARTESIAN_POINT ( 'NONE',  ( 390.0000000000000000, -1.999999999999998668, 0.0000000000000000000 ) ) ;
#280 = CARTESIAN_POINT ( 'NONE',  ( 390.0000000000000000, 2.000000000000001332, -10.00000000000000000 ) ) ;
#281 = CARTESIAN_POINT ( 'NONE',  ( 390.0000000000000000, 0.7500000000000013323, -10.00000000000000000 ) ) ;
#282 = CLOSED_SHELL ( 'NONE', ( #16, #204, #183, #227, #146, #107, #26, #149, #274, #319 ) ) ;
#283 = LINE ( 'NONE', #233, #74 ) ;
#284 = ORIENTED_EDGE ( 'NONE', *, *, #297, .T. ) ;
#285 = LINE ( 'NONE', #48, #317 ) ;
#286 = ORIENTED_EDGE ( 'NONE', *, *, #54, .T. ) ;
#287 = CARTESIAN_POINT ( 'NONE',  ( 390.0000000000000000, -1.999999999999998668, -10.00000000000000000 ) ) ;
#288 = SURFACE_STYLE_USAGE ( .BOTH. , #268 ) ;
#289 = PLANE ( 'NONE',  #141 ) ;
#290 = DIRECTION ( 'NONE',  ( 0.0000000000000000000, -1.000000000000000000, 0.0000000000000000000 ) ) ;
#291 = LINE ( 'NONE', #193, #163 ) ;
#292 = PRODUCT_DEFINITION_SHAPE ( 'NONE', 'NONE',  #240 ) ;
#293 = APPLICATION_CONTEXT ( 'automotive_design' ) ;
#294 = DIRECTION ( 'NONE',  ( -1.000000000000000000, -0.0000000000000000000, -0.0000000000000000000 ) ) ;
#295 = CARTESIAN_POINT ( 'NONE',  ( 390.0000000000000000, -0.7499999999999986677, -10.00000000000000000 ) ) ;
#296 = LINE ( 'NONE', #228, #81 ) ;
#297 = EDGE_CURVE ( 'NONE', #18, #60, #173, .T. ) ;
#298 = CARTESIAN_POINT ( 'NONE',  ( 390.0000000000000000, -0.7499999999999986677, -10.00000000000000000 ) ) ;
#299 = DIRECTION ( 'NONE',  ( 0.0000000000000000000, 1.000000000000000000, 0.0000000000000000000 ) ) ;
#300 = CARTESIAN_POINT ( 'NONE',  ( -6.000000000000000000, -0.7499999999999986677, -22.00000000000000000 ) ) ;
#301 = EDGE_LOOP ( 'NONE', ( #284, #83, #221, #185 ) ) ;
#302 = LINE ( 'NONE', #187, #106 ) ;
#303 = ORIENTED_EDGE ( 'NONE', *, *, #314, .T. ) ;
#304 = LINE ( 'NONE', #255, #242 ) ;
#305 = EDGE_LOOP ( 'NONE', ( #134, #19, #164, #263 ) ) ;
#306 = DIRECTION ( 'NONE',  ( -1.000000000000000000, 0.0000000000000000000, 0.0000000000000000000 ) ) ;
#307 = EDGE_LOOP ( 'NONE', ( #201, #211, #143, #213 ) ) ;
#308 = EDGE_CURVE ( 'NONE', #88, #198, #157, .T. ) ;
#309 = PLANE ( 'NONE',  #217 ) ;
#310 = APPLICATION_PROTOCOL_DEFINITION ( 'draft international standard', 'automotive_design', 1998, #140 ) ;
#311 = FACE_OUTER_BOUND ( 'NONE', #63, .T. ) ;
#312 = ORIENTED_EDGE ( 'NONE', *, *, #308, .F. ) ;
#313 = PRODUCT ( '191777', '191777', '', ( #270 ) ) ;
#314 = EDGE_CURVE ( 'NONE', #88, #66, #291, .T. ) ;
#315 = CARTESIAN_POINT ( 'NONE',  ( -6.000000000000000000, 0.0000000000000000000, 0.0000000000000000000 ) ) ;
#316 = LINE ( 'NONE', #280, #197 ) ;
#317 = VECTOR ( 'NONE', #177, 1000.000000000000000 ) ;
#318 = FILL_AREA_STYLE_COLOUR ( '', #84 ) ;
#319 = ADVANCED_FACE ( 'NONE', ( #190 ), #6, .T. ) ;
#320 = DIRECTION ( 'NONE',  ( 1.000000000000000000, 0.0000000000000000000, 0.0000000000000000000 ) ) ;
#321 = CARTESIAN_POINT ( 'NONE',  ( -6.000000000000000000, 2.000000000000001332, -10.00000000000000000 ) ) ;
#322 = SURFACE_STYLE_USAGE ( .BOTH. , #127 ) ;
#323 = ORIENTED_EDGE ( 'NONE', *, *, #314, .F. ) ;
#324 = SHAPE_DEFINITION_REPRESENTATION ( #292, #165 ) ;
#325 = CARTESIAN_POINT ( 'NONE',  ( -6.000000000000000000, -0.7499999999999986677, -10.00000000000000000 ) ) ;
#326 = FACE_OUTER_BOUND ( 'NONE', #45, .T. ) ;
#327 = ORIENTED_EDGE ( 'NONE', *, *, #156, .T. ) ;
#328 = CARTESIAN_POINT ( 'NONE',  ( -6.000000000000000000, 0.7500000000000013323, -22.00000000000000000 ) ) ;
#329 = ORIENTED_EDGE ( 'NONE', *, *, #135, .F. ) ;
#330 = LINE ( 'NONE', #49, #92 ) ;
#331 = EDGE_CURVE ( 'NONE', #18, #4, #3, .T. ) ;
#332 = ORIENTED_EDGE ( 'NONE', *, *, #136, .T. ) ;
#333 = ORIENTED_EDGE ( 'NONE', *, *, #32, .T. ) ;
#334 = ORIENTED_EDGE ( 'NONE', *, *, #266, .F. ) ;
ENDSEC;
END-ISO-10303-21;
