ISO-10303-21;
HEADER;
FILE_DESCRIPTION (( 'STEP AP214' ),
    '1' );
FILE_NAME ('191775.STEP',
    '2020-02-13T11:09:39',
    ( '' ),
    ( '' ),
    'SwSTEP 2.0',
    'SolidWorks 2018',
    '' );
FILE_SCHEMA (( 'AUTOMOTIVE_DESIGN' ));
ENDSEC;

DATA;
#1 = LINE ( 'NONE', #27, #8 ) ;
#2 = ORIENTED_EDGE ( 'NONE', *, *, #267, .F. ) ;
#3 = CARTESIAN_POINT ( 'NONE',  ( -6.000000000000000000, -0.7499999999999986677, -22.00000000000000000 ) ) ;
#4 = CARTESIAN_POINT ( 'NONE',  ( 378.0000000000000000, 0.7500000000000013323, -10.00000000000000000 ) ) ;
#5 = LINE ( 'NONE', #295, #143 ) ;
#6 = ORIENTED_EDGE ( 'NONE', *, *, #224, .F. ) ;
#7 = DIRECTION ( 'NONE',  ( -0.0000000000000000000, 1.000000000000000000, -0.0000000000000000000 ) ) ;
#8 = VECTOR ( 'NONE', #315, 1000.000000000000000 ) ;
#9 = EDGE_LOOP ( 'NONE', ( #6, #275, #38, #15, #196, #128, #25, #266 ) ) ;
#10 = ADVANCED_FACE ( 'NONE', ( #227 ), #116, .F. ) ;
#11 = CARTESIAN_POINT ( 'NONE',  ( 378.0000000000000000, -0.7499999999999986677, -22.00000000000000000 ) ) ;
#12 = DIRECTION ( 'NONE',  ( -0.0000000000000000000, 1.000000000000000000, 0.0000000000000000000 ) ) ;
#13 = VECTOR ( 'NONE', #206, 1000.000000000000000 ) ;
#14 = DIRECTION ( 'NONE',  ( 1.000000000000000000, 0.0000000000000000000, 0.0000000000000000000 ) ) ;
#15 = ORIENTED_EDGE ( 'NONE', *, *, #216, .F. ) ;
#16 = AXIS2_PLACEMENT_3D ( 'NONE', #156, #41, #40 ) ;
#17 = APPLICATION_PROTOCOL_DEFINITION ( 'draft international standard', 'automotive_design', 1998, #72 ) ;
#18 = AXIS2_PLACEMENT_3D ( 'NONE', #57, #194, #107 ) ;
#19 = PRODUCT_CONTEXT ( 'NONE', #184, 'mechanical' ) ;
#20 = VERTEX_POINT ( 'NONE', #299 ) ;
#21 = UNCERTAINTY_MEASURE_WITH_UNIT (LENGTH_MEASURE( 1.000000000000000082E-05 ), #244, 'distance_accuracy_value', 'NONE');
#22 = EDGE_LOOP ( 'NONE', ( #147, #67, #182, #286 ) ) ;
#23 = CARTESIAN_POINT ( 'NONE',  ( 378.0000000000000000, -1.999999999999998668, -10.00000000000000000 ) ) ;
#24 = LINE ( 'NONE', #230, #48 ) ;
#25 = ORIENTED_EDGE ( 'NONE', *, *, #212, .F. ) ;
#26 = CARTESIAN_POINT ( 'NONE',  ( 378.0000000000000000, 0.7500000000000013323, -22.00000000000000000 ) ) ;
#27 = CARTESIAN_POINT ( 'NONE',  ( 378.0000000000000000, 0.7500000000000013323, -22.00000000000000000 ) ) ;
#28 = LINE ( 'NONE', #290, #54 ) ;
#29 = VERTEX_POINT ( 'NONE', #249 ) ;
#30 = CARTESIAN_POINT ( 'NONE',  ( -6.000000000000000000, -1.999999999999998668, -10.00000000000000000 ) ) ;
#31 = ADVANCED_FACE ( 'NONE', ( #331 ), #137, .T. ) ;
#32 =( LENGTH_UNIT ( ) NAMED_UNIT ( * ) SI_UNIT ( .MILLI., .METRE. ) );
#33 = CARTESIAN_POINT ( 'NONE',  ( 378.0000000000000000, 2.000000000000001332, -10.00000000000000000 ) ) ;
#34 = PRODUCT_DEFINITION_CONTEXT ( 'detailed design', #72, 'design' ) ;
#35 = VECTOR ( 'NONE', #258, 1000.000000000000000 ) ;
#36 = PLANE ( 'NONE',  #151 ) ;
#37 =( GEOMETRIC_REPRESENTATION_CONTEXT ( 3 ) GLOBAL_UNCERTAINTY_ASSIGNED_CONTEXT ( ( #241 ) ) GLOBAL_UNIT_ASSIGNED_CONTEXT ( ( #298, #329, #272 ) ) REPRESENTATION_CONTEXT ( 'NONE', 'WORKASPACE' ) );
#38 = ORIENTED_EDGE ( 'NONE', *, *, #195, .F. ) ;
#39 = PLANE ( 'NONE',  #146 ) ;
#40 = DIRECTION ( 'NONE',  ( 0.0000000000000000000, -0.0000000000000000000, 1.000000000000000000 ) ) ;
#41 = DIRECTION ( 'NONE',  ( 0.0000000000000000000, 1.000000000000000000, 0.0000000000000000000 ) ) ;
#42 = LINE ( 'NONE', #294, #13 ) ;
#43 = VERTEX_POINT ( 'NONE', #161 ) ;
#44 = PLANE ( 'NONE',  #16 ) ;
#45 = AXIS2_PLACEMENT_3D ( 'NONE', #49, #12, #180 ) ;
#46 = SURFACE_SIDE_STYLE ('',( #99 ) ) ;
#47 =( NAMED_UNIT ( * ) PLANE_ANGLE_UNIT ( ) SI_UNIT ( $, .RADIAN. ) );
#48 = VECTOR ( 'NONE', #172, 1000.000000000000000 ) ;
#49 = CARTESIAN_POINT ( 'NONE',  ( 378.0000000000000000, -0.7499999999999986677, -10.00000000000000000 ) ) ;
#50 =( NAMED_UNIT ( * ) SI_UNIT ( $, .STERADIAN. ) SOLID_ANGLE_UNIT ( ) );
#51 = FILL_AREA_STYLE_COLOUR ( '', #231 ) ;
#52 = VECTOR ( 'NONE', #318, 1000.000000000000000 ) ;
#53 = VERTEX_POINT ( 'NONE', #124 ) ;
#54 = VECTOR ( 'NONE', #200, 1000.000000000000000 ) ;
#55 = VECTOR ( 'NONE', #240, 1000.000000000000000 ) ;
#56 = ORIENTED_EDGE ( 'NONE', *, *, #195, .T. ) ;
#57 = CARTESIAN_POINT ( 'NONE',  ( 378.0000000000000000, -0.7499999999999986677, -10.00000000000000000 ) ) ;
#58 = STYLED_ITEM ( 'NONE', ( #86 ), #76 ) ;
#59 =( NAMED_UNIT ( * ) SI_UNIT ( $, .STERADIAN. ) SOLID_ANGLE_UNIT ( ) );
#60 = CARTESIAN_POINT ( 'NONE',  ( 378.0000000000000000, -0.7499999999999986677, -22.00000000000000000 ) ) ;
#61 = EDGE_LOOP ( 'NONE', ( #326, #178, #2, #93 ) ) ;
#62 = ORIENTED_EDGE ( 'NONE', *, *, #210, .F. ) ;
#63 = DIRECTION ( 'NONE',  ( -1.000000000000000000, -0.0000000000000000000, -0.0000000000000000000 ) ) ;
#64 = CARTESIAN_POINT ( 'NONE',  ( 378.0000000000000000, 2.000000000000001332, 0.0000000000000000000 ) ) ;
#65 = LINE ( 'NONE', #263, #273 ) ;
#66 = DIRECTION ( 'NONE',  ( -0.0000000000000000000, -0.0000000000000000000, -1.000000000000000000 ) ) ;
#67 = ORIENTED_EDGE ( 'NONE', *, *, #165, .T. ) ;
#68 = DIRECTION ( 'NONE',  ( 0.0000000000000000000, 0.0000000000000000000, -1.000000000000000000 ) ) ;
#69 = DIRECTION ( 'NONE',  ( -0.0000000000000000000, -0.0000000000000000000, -1.000000000000000000 ) ) ;
#70 = ORIENTED_EDGE ( 'NONE', *, *, #304, .F. ) ;
#71 = VERTEX_POINT ( 'NONE', #167 ) ;
#72 = APPLICATION_CONTEXT ( 'automotive_design' ) ;
#73 = FILL_AREA_STYLE ('',( #51 ) ) ;
#74 = ORIENTED_EDGE ( 'NONE', *, *, #254, .T. ) ;
#75 = LINE ( 'NONE', #323, #209 ) ;
#76 = MANIFOLD_SOLID_BREP ( 'Aufsatz-Linear austragen1', #219 ) ;
#77 = ORIENTED_EDGE ( 'NONE', *, *, #220, .T. ) ;
#78 = VERTEX_POINT ( 'NONE', #252 ) ;
#79 = DIRECTION ( 'NONE',  ( 0.0000000000000000000, 0.0000000000000000000, 1.000000000000000000 ) ) ;
#80 =( GEOMETRIC_REPRESENTATION_CONTEXT ( 3 ) GLOBAL_UNCERTAINTY_ASSIGNED_CONTEXT ( ( #253 ) ) GLOBAL_UNIT_ASSIGNED_CONTEXT ( ( #32, #84, #59 ) ) REPRESENTATION_CONTEXT ( 'NONE', 'WORKASPACE' ) );
#81 = VERTEX_POINT ( 'NONE', #26 ) ;
#82 = CARTESIAN_POINT ( 'NONE',  ( -6.000000000000000000, 0.7500000000000013323, -22.00000000000000000 ) ) ;
#83 = VERTEX_POINT ( 'NONE', #23 ) ;
#84 =( NAMED_UNIT ( * ) PLANE_ANGLE_UNIT ( ) SI_UNIT ( $, .RADIAN. ) );
#85 = CARTESIAN_POINT ( 'NONE',  ( -6.000000000000000000, -1.999999999999998668, 0.0000000000000000000 ) ) ;
#86 = PRESENTATION_STYLE_ASSIGNMENT (( #314 ) ) ;
#87 = ORIENTED_EDGE ( 'NONE', *, *, #304, .T. ) ;
#88 = CARTESIAN_POINT ( 'NONE',  ( 378.0000000000000000, -0.7499999999999986677, -10.00000000000000000 ) ) ;
#89 = ADVANCED_FACE ( 'NONE', ( #280 ), #262, .F. ) ;
#90 = CARTESIAN_POINT ( 'NONE',  ( 378.0000000000000000, -0.7499999999999986677, -10.00000000000000000 ) ) ;
#91 = VECTOR ( 'NONE', #256, 1000.000000000000000 ) ;
#92 = AXIS2_PLACEMENT_3D ( 'NONE', #127, #148, #129 ) ;
#93 = ORIENTED_EDGE ( 'NONE', *, *, #193, .F. ) ;
#94 = LINE ( 'NONE', #173, #330 ) ;
#95 = EDGE_CURVE ( 'NONE', #333, #43, #185, .T. ) ;
#96 = APPLICATION_PROTOCOL_DEFINITION ( 'draft international standard', 'automotive_design', 1998, #184 ) ;
#97 = LINE ( 'NONE', #204, #296 ) ;
#98 = ORIENTED_EDGE ( 'NONE', *, *, #313, .F. ) ;
#99 = SURFACE_STYLE_FILL_AREA ( #73 ) ;
#100 = LINE ( 'NONE', #202, #108 ) ;
#101 = ORIENTED_EDGE ( 'NONE', *, *, #313, .T. ) ;
#102 = DIRECTION ( 'NONE',  ( -0.0000000000000000000, 0.0000000000000000000, 1.000000000000000000 ) ) ;
#103 = VECTOR ( 'NONE', #154, 1000.000000000000000 ) ;
#104 = VERTEX_POINT ( 'NONE', #223 ) ;
#105 = CARTESIAN_POINT ( 'NONE',  ( -6.000000000000000000, 2.000000000000001332, -10.00000000000000000 ) ) ;
#106 = AXIS2_PLACEMENT_3D ( 'NONE', #158, #68, #292 ) ;
#107 = DIRECTION ( 'NONE',  ( 1.000000000000000000, 0.0000000000000000000, 0.0000000000000000000 ) ) ;
#108 = VECTOR ( 'NONE', #69, 1000.000000000000000 ) ;
#109 = DIRECTION ( 'NONE',  ( 0.0000000000000000000, -1.000000000000000000, 0.0000000000000000000 ) ) ;
#110 = EDGE_CURVE ( 'NONE', #81, #159, #1, .T. ) ;
#111 = CARTESIAN_POINT ( 'NONE',  ( -6.000000000000000000, 2.000000000000001332, 0.0000000000000000000 ) ) ;
#112 = VECTOR ( 'NONE', #243, 1000.000000000000000 ) ;
#113 = SURFACE_STYLE_FILL_AREA ( #121 ) ;
#114 = LINE ( 'NONE', #64, #52 ) ;
#115 = EDGE_CURVE ( 'NONE', #133, #71, #234, .T. ) ;
#116 = PLANE ( 'NONE',  #45 ) ;
#117 = FACE_OUTER_BOUND ( 'NONE', #138, .T. ) ;
#118 = EDGE_LOOP ( 'NONE', ( #170, #163, #226, #218 ) ) ;
#119 =( GEOMETRIC_REPRESENTATION_CONTEXT ( 3 ) GLOBAL_UNCERTAINTY_ASSIGNED_CONTEXT ( ( #21 ) ) GLOBAL_UNIT_ASSIGNED_CONTEXT ( ( #244, #47, #50 ) ) REPRESENTATION_CONTEXT ( 'NONE', 'WORKASPACE' ) );
#120 = ORIENTED_EDGE ( 'NONE', *, *, #110, .T. ) ;
#121 = FILL_AREA_STYLE ('',( #188 ) ) ;
#122 = VECTOR ( 'NONE', #168, 1000.000000000000000 ) ;
#123 = COLOUR_RGB ( '',0.7921568627450980005, 0.8196078431372548767, 0.9333333333333333481 ) ;
#124 = CARTESIAN_POINT ( 'NONE',  ( 378.0000000000000000, -0.7499999999999986677, -10.00000000000000000 ) ) ;
#125 = DIRECTION ( 'NONE',  ( -1.000000000000000000, -0.0000000000000000000, -0.0000000000000000000 ) ) ;
#126 = EDGE_CURVE ( 'NONE', #53, #305, #214, .T. ) ;
#127 = CARTESIAN_POINT ( 'NONE',  ( 378.0000000000000000, 0.0000000000000000000, 0.0000000000000000000 ) ) ;
#128 = ORIENTED_EDGE ( 'NONE', *, *, #274, .F. ) ;
#129 = DIRECTION ( 'NONE',  ( 0.0000000000000000000, 0.0000000000000000000, 1.000000000000000000 ) ) ;
#130 = DIRECTION ( 'NONE',  ( -0.0000000000000000000, 1.000000000000000000, -0.0000000000000000000 ) ) ;
#131 = AXIS2_PLACEMENT_3D ( 'NONE', #33, #102, #150 ) ;
#132 = CARTESIAN_POINT ( 'NONE',  ( -6.000000000000000000, -0.7499999999999986677, -10.00000000000000000 ) ) ;
#133 = VERTEX_POINT ( 'NONE', #60 ) ;
#134 = PLANE ( 'NONE',  #106 ) ;
#135 = ADVANCED_FACE ( 'NONE', ( #166 ), #288, .F. ) ;
#136 = DIRECTION ( 'NONE',  ( -1.000000000000000000, -0.0000000000000000000, -0.0000000000000000000 ) ) ;
#137 = PLANE ( 'NONE',  #322 ) ;
#138 = EDGE_LOOP ( 'NONE', ( #203, #190, #144, #142 ) ) ;
#139 = SURFACE_STYLE_USAGE ( .BOTH. , #46 ) ;
#140 = DIRECTION ( 'NONE',  ( 1.000000000000000000, 0.0000000000000000000, -0.0000000000000000000 ) ) ;
#141 = VECTOR ( 'NONE', #171, 1000.000000000000000 ) ;
#142 = ORIENTED_EDGE ( 'NONE', *, *, #95, .F. ) ;
#143 = VECTOR ( 'NONE', #136, 1000.000000000000000 ) ;
#144 = ORIENTED_EDGE ( 'NONE', *, *, #310, .F. ) ;
#145 = LINE ( 'NONE', #105, #91 ) ;
#146 = AXIS2_PLACEMENT_3D ( 'NONE', #268, #155, #264 ) ;
#147 = ORIENTED_EDGE ( 'NONE', *, *, #115, .T. ) ;
#148 = DIRECTION ( 'NONE',  ( -1.000000000000000000, 0.0000000000000000000, 0.0000000000000000000 ) ) ;
#149 = ORIENTED_EDGE ( 'NONE', *, *, #220, .F. ) ;
#150 = DIRECTION ( 'NONE',  ( 1.000000000000000000, 0.0000000000000000000, 0.0000000000000000000 ) ) ;
#151 = AXIS2_PLACEMENT_3D ( 'NONE', #175, #235, #140 ) ;
#152 = CARTESIAN_POINT ( 'NONE',  ( 378.0000000000000000, 2.000000000000001332, -10.00000000000000000 ) ) ;
#153 = SURFACE_SIDE_STYLE ('',( #113 ) ) ;
#154 = DIRECTION ( 'NONE',  ( -1.000000000000000000, -0.0000000000000000000, -0.0000000000000000000 ) ) ;
#155 = DIRECTION ( 'NONE',  ( 0.0000000000000000000, -1.000000000000000000, 0.0000000000000000000 ) ) ;
#156 = CARTESIAN_POINT ( 'NONE',  ( 378.0000000000000000, -1.999999999999998668, -10.00000000000000000 ) ) ;
#157 = LINE ( 'NONE', #132, #174 ) ;
#158 = CARTESIAN_POINT ( 'NONE',  ( 378.0000000000000000, 2.000000000000001332, 0.0000000000000000000 ) ) ;
#159 = VERTEX_POINT ( 'NONE', #82 ) ;
#160 = AXIS2_PLACEMENT_3D ( 'NONE', #328, #327, #14 ) ;
#161 = CARTESIAN_POINT ( 'NONE',  ( 378.0000000000000000, -1.999999999999998668, 0.0000000000000000000 ) ) ;
#162 = LINE ( 'NONE', #90, #303 ) ;
#163 = ORIENTED_EDGE ( 'NONE', *, *, #274, .T. ) ;
#164 = ORIENTED_EDGE ( 'NONE', *, *, #181, .T. ) ;
#165 = EDGE_CURVE ( 'NONE', #71, #159, #300, .T. ) ;
#166 = FACE_OUTER_BOUND ( 'NONE', #309, .T. ) ;
#167 = CARTESIAN_POINT ( 'NONE',  ( -6.000000000000000000, -0.7499999999999986677, -22.00000000000000000 ) ) ;
#168 = DIRECTION ( 'NONE',  ( -1.000000000000000000, -0.0000000000000000000, -0.0000000000000000000 ) ) ;
#169 = LINE ( 'NONE', #88, #112 ) ;
#170 = ORIENTED_EDGE ( 'NONE', *, *, #126, .T. ) ;
#171 = DIRECTION ( 'NONE',  ( 0.0000000000000000000, 1.000000000000000000, 0.0000000000000000000 ) ) ;
#172 = DIRECTION ( 'NONE',  ( -0.0000000000000000000, 1.000000000000000000, -0.0000000000000000000 ) ) ;
#173 = CARTESIAN_POINT ( 'NONE',  ( -6.000000000000000000, 0.7500000000000013323, -22.00000000000000000 ) ) ;
#174 = VECTOR ( 'NONE', #208, 1000.000000000000000 ) ;
#175 = CARTESIAN_POINT ( 'NONE',  ( 378.0000000000000000, -0.7499999999999986677, -22.00000000000000000 ) ) ;
#176 = ADVANCED_FACE ( 'NONE', ( #221 ), #232, .F. ) ;
#177 = VECTOR ( 'NONE', #321, 1000.000000000000000 ) ;
#178 = ORIENTED_EDGE ( 'NONE', *, *, #302, .T. ) ;
#179 = CARTESIAN_POINT ( 'NONE',  ( 378.0000000000000000, 2.000000000000001332, -10.00000000000000000 ) ) ;
#180 = DIRECTION ( 'NONE',  ( 0.0000000000000000000, -0.0000000000000000000, 1.000000000000000000 ) ) ;
#181 = EDGE_CURVE ( 'NONE', #104, #29, #308, .T. ) ;
#182 = ORIENTED_EDGE ( 'NONE', *, *, #110, .F. ) ;
#183 = ADVANCED_BREP_SHAPE_REPRESENTATION ( '191775', ( #76, #160 ), #119 ) ;
#184 = APPLICATION_CONTEXT ( 'automotive_design' ) ;
#185 = LINE ( 'NONE', #257, #289 ) ;
#186 = EDGE_LOOP ( 'NONE', ( #101, #242, #270, #149 ) ) ;
#187 = ORIENTED_EDGE ( 'NONE', *, *, #265, .T. ) ;
#188 = FILL_AREA_STYLE_COLOUR ( '', #123 ) ;
#189 = LINE ( 'NONE', #192, #35 ) ;
#190 = ORIENTED_EDGE ( 'NONE', *, *, #224, .T. ) ;
#191 = DIRECTION ( 'NONE',  ( -1.000000000000000000, 0.0000000000000000000, 0.0000000000000000000 ) ) ;
#192 = CARTESIAN_POINT ( 'NONE',  ( 378.0000000000000000, 2.000000000000001332, -10.00000000000000000 ) ) ;
#193 = EDGE_CURVE ( 'NONE', #246, #333, #189, .T. ) ;
#194 = DIRECTION ( 'NONE',  ( -0.0000000000000000000, 0.0000000000000000000, 1.000000000000000000 ) ) ;
#195 = EDGE_CURVE ( 'NONE', #29, #78, #145, .T. ) ;
#196 = ORIENTED_EDGE ( 'NONE', *, *, #165, .F. ) ;
#197 = DIRECTION ( 'NONE',  ( 0.0000000000000000000, 0.0000000000000000000, 1.000000000000000000 ) ) ;
#198 = PLANE ( 'NONE',  #18 ) ;
#199 = PRODUCT ( '191775', '191775', '', ( #19 ) ) ;
#200 = DIRECTION ( 'NONE',  ( 0.0000000000000000000, 0.0000000000000000000, 1.000000000000000000 ) ) ;
#201 = LINE ( 'NONE', #152, #247 ) ;
#202 = CARTESIAN_POINT ( 'NONE',  ( -6.000000000000000000, -1.999999999999998668, -10.00000000000000000 ) ) ;
#203 = ORIENTED_EDGE ( 'NONE', *, *, #267, .T. ) ;
#204 = CARTESIAN_POINT ( 'NONE',  ( 378.0000000000000000, -1.999999999999998668, -10.00000000000000000 ) ) ;
#205 = ADVANCED_FACE ( 'NONE', ( #239 ), #198, .F. ) ;
#206 = DIRECTION ( 'NONE',  ( 0.0000000000000000000, 0.0000000000000000000, 1.000000000000000000 ) ) ;
#207 = PRODUCT_RELATED_PRODUCT_CATEGORY ( 'part', '', ( #199 ) ) ;
#208 = DIRECTION ( 'NONE',  ( 0.0000000000000000000, 0.0000000000000000000, -1.000000000000000000 ) ) ;
#209 = VECTOR ( 'NONE', #63, 1000.000000000000000 ) ;
#210 = EDGE_CURVE ( 'NONE', #104, #246, #201, .T. ) ;
#211 = VERTEX_POINT ( 'NONE', #30 ) ;
#212 = EDGE_CURVE ( 'NONE', #211, #305, #24, .T. ) ;
#213 = EDGE_CURVE ( 'NONE', #246, #78, #65, .T. ) ;
#214 = LINE ( 'NONE', #261, #103 ) ;
#215 = VERTEX_POINT ( 'NONE', #85 ) ;
#216 = EDGE_CURVE ( 'NONE', #159, #29, #94, .T. ) ;
#217 = FACE_OUTER_BOUND ( 'NONE', #22, .T. ) ;
#218 = ORIENTED_EDGE ( 'NONE', *, *, #265, .F. ) ;
#219 = CLOSED_SHELL ( 'NONE', ( #233, #293, #205, #10, #320, #229, #135, #89, #176, #31 ) ) ;
#220 = EDGE_CURVE ( 'NONE', #83, #53, #162, .T. ) ;
#221 = FACE_OUTER_BOUND ( 'NONE', #251, .T. ) ;
#222 = ORIENTED_EDGE ( 'NONE', *, *, #307, .F. ) ;
#223 = CARTESIAN_POINT ( 'NONE',  ( 378.0000000000000000, 0.7500000000000013323, -10.00000000000000000 ) ) ;
#224 = EDGE_CURVE ( 'NONE', #20, #215, #325, .T. ) ;
#225 = VECTOR ( 'NONE', #125, 1000.000000000000000 ) ;
#226 = ORIENTED_EDGE ( 'NONE', *, *, #115, .F. ) ;
#227 = FACE_OUTER_BOUND ( 'NONE', #118, .T. ) ;
#228 = DIRECTION ( 'NONE',  ( 0.0000000000000000000, -0.0000000000000000000, -1.000000000000000000 ) ) ;
#229 = ADVANCED_FACE ( 'NONE', ( #255 ), #39, .F. ) ;
#230 = CARTESIAN_POINT ( 'NONE',  ( -6.000000000000000000, -0.7499999999999986677, -10.00000000000000000 ) ) ;
#231 = COLOUR_RGB ( '',0.7921568627450980005, 0.8196078431372548767, 0.9333333333333333481 ) ;
#232 = PLANE ( 'NONE',  #92 ) ;
#233 = ADVANCED_FACE ( 'NONE', ( #117 ), #134, .F. ) ;
#234 = LINE ( 'NONE', #287, #122 ) ;
#235 = DIRECTION ( 'NONE',  ( 0.0000000000000000000, 0.0000000000000000000, 1.000000000000000000 ) ) ;
#236 = DIRECTION ( 'NONE',  ( -1.000000000000000000, -0.0000000000000000000, -0.0000000000000000000 ) ) ;
#237 = MECHANICAL_DESIGN_GEOMETRIC_PRESENTATION_REPRESENTATION (  '', ( #58 ), #80 ) ;
#238 = CARTESIAN_POINT ( 'NONE',  ( -6.000000000000000000, -0.7499999999999986677, -10.00000000000000000 ) ) ;
#239 = FACE_OUTER_BOUND ( 'NONE', #186, .T. ) ;
#240 = DIRECTION ( 'NONE',  ( 0.0000000000000000000, 1.000000000000000000, 0.0000000000000000000 ) ) ;
#241 = UNCERTAINTY_MEASURE_WITH_UNIT (LENGTH_MEASURE( 1.000000000000000082E-05 ), #298, 'distance_accuracy_value', 'NONE');
#242 = ORIENTED_EDGE ( 'NONE', *, *, #212, .T. ) ;
#243 = DIRECTION ( 'NONE',  ( 0.0000000000000000000, 0.0000000000000000000, -1.000000000000000000 ) ) ;
#244 =( LENGTH_UNIT ( ) NAMED_UNIT ( * ) SI_UNIT ( .MILLI., .METRE. ) );
#245 = PRESENTATION_LAYER_ASSIGNMENT (  '', '', ( #58 ) ) ;
#246 = VERTEX_POINT ( 'NONE', #179 ) ;
#247 = VECTOR ( 'NONE', #7, 1000.000000000000000 ) ;
#248 = ORIENTED_EDGE ( 'NONE', *, *, #307, .T. ) ;
#249 = CARTESIAN_POINT ( 'NONE',  ( -6.000000000000000000, 0.7500000000000013323, -10.00000000000000000 ) ) ;
#250 = LINE ( 'NONE', #11, #55 ) ;
#251 = EDGE_LOOP ( 'NONE', ( #260, #87, #77, #187, #74, #248, #276, #285 ) ) ;
#252 = CARTESIAN_POINT ( 'NONE',  ( -6.000000000000000000, 2.000000000000001332, -10.00000000000000000 ) ) ;
#253 = UNCERTAINTY_MEASURE_WITH_UNIT (LENGTH_MEASURE( 1.000000000000000082E-05 ), #32, 'distance_accuracy_value', 'NONE');
#254 = EDGE_CURVE ( 'NONE', #133, #81, #250, .T. ) ;
#255 = FACE_OUTER_BOUND ( 'NONE', #334, .T. ) ;
#256 = DIRECTION ( 'NONE',  ( -0.0000000000000000000, 1.000000000000000000, -0.0000000000000000000 ) ) ;
#257 = CARTESIAN_POINT ( 'NONE',  ( 378.0000000000000000, 2.000000000000001332, 0.0000000000000000000 ) ) ;
#258 = DIRECTION ( 'NONE',  ( 0.0000000000000000000, 0.0000000000000000000, 1.000000000000000000 ) ) ;
#259 = STYLED_ITEM ( 'NONE', ( #279 ), #183 ) ;
#260 = ORIENTED_EDGE ( 'NONE', *, *, #95, .T. ) ;
#261 = CARTESIAN_POINT ( 'NONE',  ( 378.0000000000000000, -0.7499999999999986677, -10.00000000000000000 ) ) ;
#262 = PLANE ( 'NONE',  #332 ) ;
#263 = CARTESIAN_POINT ( 'NONE',  ( 378.0000000000000000, 2.000000000000001332, -10.00000000000000000 ) ) ;
#264 = DIRECTION ( 'NONE',  ( 0.0000000000000000000, -0.0000000000000000000, -1.000000000000000000 ) ) ;
#265 = EDGE_CURVE ( 'NONE', #53, #133, #169, .T. ) ;
#266 = ORIENTED_EDGE ( 'NONE', *, *, #282, .F. ) ;
#267 = EDGE_CURVE ( 'NONE', #333, #20, #114, .T. ) ;
#268 = CARTESIAN_POINT ( 'NONE',  ( 378.0000000000000000, 0.7500000000000013323, -22.00000000000000000 ) ) ;
#269 = PRODUCT_DEFINITION_SHAPE ( 'NONE', 'NONE',  #312 ) ;
#270 = ORIENTED_EDGE ( 'NONE', *, *, #126, .F. ) ;
#271 = CARTESIAN_POINT ( 'NONE',  ( -6.000000000000000000, 0.0000000000000000000, 0.0000000000000000000 ) ) ;
#272 =( NAMED_UNIT ( * ) SI_UNIT ( $, .STERADIAN. ) SOLID_ANGLE_UNIT ( ) );
#273 = VECTOR ( 'NONE', #236, 1000.000000000000000 ) ;
#274 = EDGE_CURVE ( 'NONE', #305, #71, #157, .T. ) ;
#275 = ORIENTED_EDGE ( 'NONE', *, *, #302, .F. ) ;
#276 = ORIENTED_EDGE ( 'NONE', *, *, #210, .T. ) ;
#277 = MECHANICAL_DESIGN_GEOMETRIC_PRESENTATION_REPRESENTATION (  '', ( #259 ), #37 ) ;
#278 = PRODUCT_DEFINITION_FORMATION_WITH_SPECIFIED_SOURCE ( 'ANY', '', #199, .NOT_KNOWN. ) ;
#279 = PRESENTATION_STYLE_ASSIGNMENT (( #139 ) ) ;
#280 = FACE_OUTER_BOUND ( 'NONE', #61, .T. ) ;
#281 = EDGE_LOOP ( 'NONE', ( #297, #319, #98, #70 ) ) ;
#282 = EDGE_CURVE ( 'NONE', #215, #211, #100, .T. ) ;
#283 = PRESENTATION_LAYER_ASSIGNMENT (  '', '', ( #259 ) ) ;
#284 = DIRECTION ( 'NONE',  ( 0.0000000000000000000, -1.000000000000000000, 0.0000000000000000000 ) ) ;
#285 = ORIENTED_EDGE ( 'NONE', *, *, #193, .T. ) ;
#286 = ORIENTED_EDGE ( 'NONE', *, *, #254, .F. ) ;
#287 = CARTESIAN_POINT ( 'NONE',  ( 378.0000000000000000, -0.7499999999999986677, -22.00000000000000000 ) ) ;
#288 = PLANE ( 'NONE',  #131 ) ;
#289 = VECTOR ( 'NONE', #109, 1000.000000000000000 ) ;
#290 = CARTESIAN_POINT ( 'NONE',  ( -6.000000000000000000, 2.000000000000001332, -10.00000000000000000 ) ) ;
#291 = ORIENTED_EDGE ( 'NONE', *, *, #213, .F. ) ;
#292 = DIRECTION ( 'NONE',  ( -1.000000000000000000, 0.0000000000000000000, -0.0000000000000000000 ) ) ;
#293 = ADVANCED_FACE ( 'NONE', ( #317 ), #44, .F. ) ;
#294 = CARTESIAN_POINT ( 'NONE',  ( 378.0000000000000000, 0.7500000000000013323, -22.00000000000000000 ) ) ;
#295 = CARTESIAN_POINT ( 'NONE',  ( 378.0000000000000000, -1.999999999999998668, 0.0000000000000000000 ) ) ;
#296 = VECTOR ( 'NONE', #66, 1000.000000000000000 ) ;
#297 = ORIENTED_EDGE ( 'NONE', *, *, #310, .T. ) ;
#298 =( LENGTH_UNIT ( ) NAMED_UNIT ( * ) SI_UNIT ( .MILLI., .METRE. ) );
#299 = CARTESIAN_POINT ( 'NONE',  ( -6.000000000000000000, 2.000000000000001332, 0.0000000000000000000 ) ) ;
#300 = LINE ( 'NONE', #3, #141 ) ;
#301 = ORIENTED_EDGE ( 'NONE', *, *, #216, .T. ) ;
#302 = EDGE_CURVE ( 'NONE', #78, #20, #28, .T. ) ;
#303 = VECTOR ( 'NONE', #130, 1000.000000000000000 ) ;
#304 = EDGE_CURVE ( 'NONE', #43, #83, #97, .T. ) ;
#305 = VERTEX_POINT ( 'NONE', #238 ) ;
#306 = ORIENTED_EDGE ( 'NONE', *, *, #181, .F. ) ;
#307 = EDGE_CURVE ( 'NONE', #81, #104, #42, .T. ) ;
#308 = LINE ( 'NONE', #4, #225 ) ;
#309 = EDGE_LOOP ( 'NONE', ( #164, #56, #291, #62 ) ) ;
#310 = EDGE_CURVE ( 'NONE', #43, #215, #5, .T. ) ;
#311 = CARTESIAN_POINT ( 'NONE',  ( 378.0000000000000000, 2.000000000000001332, -10.00000000000000000 ) ) ;
#312 = PRODUCT_DEFINITION ( 'UNKNOWN', '', #278, #34 ) ;
#313 = EDGE_CURVE ( 'NONE', #83, #211, #75, .T. ) ;
#314 = SURFACE_STYLE_USAGE ( .BOTH. , #153 ) ;
#315 = DIRECTION ( 'NONE',  ( -1.000000000000000000, -0.0000000000000000000, -0.0000000000000000000 ) ) ;
#316 = CARTESIAN_POINT ( 'NONE',  ( 378.0000000000000000, 2.000000000000001332, 0.0000000000000000000 ) ) ;
#317 = FACE_OUTER_BOUND ( 'NONE', #281, .T. ) ;
#318 = DIRECTION ( 'NONE',  ( -1.000000000000000000, -0.0000000000000000000, -0.0000000000000000000 ) ) ;
#319 = ORIENTED_EDGE ( 'NONE', *, *, #282, .T. ) ;
#320 = ADVANCED_FACE ( 'NONE', ( #217 ), #36, .F. ) ;
#321 = DIRECTION ( 'NONE',  ( 0.0000000000000000000, -1.000000000000000000, 0.0000000000000000000 ) ) ;
#322 = AXIS2_PLACEMENT_3D ( 'NONE', #271, #191, #79 ) ;
#323 = CARTESIAN_POINT ( 'NONE',  ( 378.0000000000000000, -1.999999999999998668, -10.00000000000000000 ) ) ;
#324 = SHAPE_DEFINITION_REPRESENTATION ( #269, #183 ) ;
#325 = LINE ( 'NONE', #111, #177 ) ;
#326 = ORIENTED_EDGE ( 'NONE', *, *, #213, .T. ) ;
#327 = DIRECTION ( 'NONE',  ( 0.0000000000000000000, 0.0000000000000000000, 1.000000000000000000 ) ) ;
#328 = CARTESIAN_POINT ( 'NONE',  ( 0.0000000000000000000, 0.0000000000000000000, 0.0000000000000000000 ) ) ;
#329 =( NAMED_UNIT ( * ) PLANE_ANGLE_UNIT ( ) SI_UNIT ( $, .RADIAN. ) );
#330 = VECTOR ( 'NONE', #197, 1000.000000000000000 ) ;
#331 = FACE_OUTER_BOUND ( 'NONE', #9, .T. ) ;
#332 = AXIS2_PLACEMENT_3D ( 'NONE', #311, #284, #228 ) ;
#333 = VERTEX_POINT ( 'NONE', #316 ) ;
#334 = EDGE_LOOP ( 'NONE', ( #120, #301, #306, #222 ) ) ;
ENDSEC;
END-ISO-10303-21;
