ISO-10303-21;
HEADER;
FILE_DESCRIPTION (( 'STEP AP214' ),
    '1' );
FILE_NAME ('191774.STEP',
    '2020-02-13T11:08:30',
    ( '' ),
    ( '' ),
    'SwSTEP 2.0',
    'SolidWorks 2018',
    '' );
FILE_SCHEMA (( 'AUTOMOTIVE_DESIGN' ));
ENDSEC;

DATA;
#1 = MECHANICAL_DESIGN_GEOMETRIC_PRESENTATION_REPRESENTATION (  '', ( #172 ), #156 ) ;
#2 = CARTESIAN_POINT ( 'NONE',  ( 366.0000000000000000, 2.000000000000001332, 0.0000000000000000000 ) ) ;
#3 = CARTESIAN_POINT ( 'NONE',  ( -6.000000000000000000, -0.7499999999999986677, -10.00000000000000000 ) ) ;
#4 = VERTEX_POINT ( 'NONE', #40 ) ;
#5 = EDGE_CURVE ( 'NONE', #144, #15, #42, .T. ) ;
#6 = ORIENTED_EDGE ( 'NONE', *, *, #22, .F. ) ;
#7 = DIRECTION ( 'NONE',  ( -0.0000000000000000000, 1.000000000000000000, -0.0000000000000000000 ) ) ;
#8 = SURFACE_STYLE_USAGE ( .BOTH. , #166 ) ;
#9 = EDGE_LOOP ( 'NONE', ( #276, #6, #158, #294, #25, #96, #63, #109 ) ) ;
#10 = ADVANCED_FACE ( 'NONE', ( #37 ), #125, .F. ) ;
#11 = FACE_OUTER_BOUND ( 'NONE', #133, .T. ) ;
#12 = EDGE_LOOP ( 'NONE', ( #321, #319, #279, #54 ) ) ;
#13 = MECHANICAL_DESIGN_GEOMETRIC_PRESENTATION_REPRESENTATION (  '', ( #287 ), #262 ) ;
#14 = EDGE_CURVE ( 'NONE', #162, #4, #284, .T. ) ;
#15 = VERTEX_POINT ( 'NONE', #152 ) ;
#16 = DIRECTION ( 'NONE',  ( 0.0000000000000000000, -0.0000000000000000000, -1.000000000000000000 ) ) ;
#17 = PLANE ( 'NONE',  #81 ) ;
#18 = CARTESIAN_POINT ( 'NONE',  ( 366.0000000000000000, 0.7500000000000013323, -10.00000000000000000 ) ) ;
#19 = ORIENTED_EDGE ( 'NONE', *, *, #110, .F. ) ;
#20 = ORIENTED_EDGE ( 'NONE', *, *, #58, .F. ) ;
#21 =( LENGTH_UNIT ( ) NAMED_UNIT ( * ) SI_UNIT ( .MILLI., .METRE. ) );
#22 = EDGE_CURVE ( 'NONE', #4, #205, #243, .T. ) ;
#23 = DIRECTION ( 'NONE',  ( 0.0000000000000000000, 0.0000000000000000000, 1.000000000000000000 ) ) ;
#24 = DIRECTION ( 'NONE',  ( 0.0000000000000000000, 1.000000000000000000, 0.0000000000000000000 ) ) ;
#25 = ORIENTED_EDGE ( 'NONE', *, *, #87, .F. ) ;
#26 = DIRECTION ( 'NONE',  ( -0.0000000000000000000, 1.000000000000000000, -0.0000000000000000000 ) ) ;
#27 = CARTESIAN_POINT ( 'NONE',  ( -6.000000000000000000, 0.7500000000000013323, -22.00000000000000000 ) ) ;
#28 = DIRECTION ( 'NONE',  ( -1.000000000000000000, -0.0000000000000000000, -0.0000000000000000000 ) ) ;
#29 = VERTEX_POINT ( 'NONE', #99 ) ;
#30 =( NAMED_UNIT ( * ) SI_UNIT ( $, .STERADIAN. ) SOLID_ANGLE_UNIT ( ) );
#31 = AXIS2_PLACEMENT_3D ( 'NONE', #277, #231, #121 ) ;
#32 = CARTESIAN_POINT ( 'NONE',  ( 366.0000000000000000, -0.7499999999999986677, -10.00000000000000000 ) ) ;
#33 = CARTESIAN_POINT ( 'NONE',  ( 0.0000000000000000000, 0.0000000000000000000, 0.0000000000000000000 ) ) ;
#34 = EDGE_CURVE ( 'NONE', #213, #113, #253, .T. ) ;
#35 = ORIENTED_EDGE ( 'NONE', *, *, #230, .F. ) ;
#36 = FACE_OUTER_BOUND ( 'NONE', #132, .T. ) ;
#37 = FACE_OUTER_BOUND ( 'NONE', #71, .T. ) ;
#38 = ORIENTED_EDGE ( 'NONE', *, *, #94, .T. ) ;
#39 = CLOSED_SHELL ( 'NONE', ( #56, #188, #311, #315, #171, #65, #10, #64, #168, #91 ) ) ;
#40 = CARTESIAN_POINT ( 'NONE',  ( -6.000000000000000000, 2.000000000000001332, -10.00000000000000000 ) ) ;
#41 = VECTOR ( 'NONE', #78, 1000.000000000000000 ) ;
#42 = LINE ( 'NONE', #18, #208 ) ;
#43 = VERTEX_POINT ( 'NONE', #327 ) ;
#44 = DIRECTION ( 'NONE',  ( 0.0000000000000000000, 0.0000000000000000000, -1.000000000000000000 ) ) ;
#45 = PLANE ( 'NONE',  #255 ) ;
#46 = AXIS2_PLACEMENT_3D ( 'NONE', #289, #222, #138 ) ;
#47 = VECTOR ( 'NONE', #28, 1000.000000000000000 ) ;
#48 = DIRECTION ( 'NONE',  ( -1.000000000000000000, -0.0000000000000000000, -0.0000000000000000000 ) ) ;
#49 = MANIFOLD_SOLID_BREP ( 'Aufsatz-Linear austragen1', #39 ) ;
#50 = DIRECTION ( 'NONE',  ( 0.0000000000000000000, 0.0000000000000000000, -1.000000000000000000 ) ) ;
#51 = CARTESIAN_POINT ( 'NONE',  ( -6.000000000000000000, -0.7499999999999986677, -10.00000000000000000 ) ) ;
#52 = PLANE ( 'NONE',  #216 ) ;
#53 = ORIENTED_EDGE ( 'NONE', *, *, #202, .T. ) ;
#54 = ORIENTED_EDGE ( 'NONE', *, *, #34, .F. ) ;
#55 = DIRECTION ( 'NONE',  ( -1.000000000000000000, 0.0000000000000000000, 0.0000000000000000000 ) ) ;
#56 = ADVANCED_FACE ( 'NONE', ( #82 ), #17, .F. ) ;
#57 = DIRECTION ( 'NONE',  ( 0.0000000000000000000, 0.0000000000000000000, 1.000000000000000000 ) ) ;
#58 = EDGE_CURVE ( 'NONE', #334, #205, #146, .T. ) ;
#59 = FACE_OUTER_BOUND ( 'NONE', #314, .T. ) ;
#60 = PLANE ( 'NONE',  #46 ) ;
#61 = APPLICATION_CONTEXT ( 'automotive_design' ) ;
#62 = DIRECTION ( 'NONE',  ( 0.0000000000000000000, 0.0000000000000000000, 1.000000000000000000 ) ) ;
#63 = ORIENTED_EDGE ( 'NONE', *, *, #304, .F. ) ;
#64 = ADVANCED_FACE ( 'NONE', ( #11 ), #124, .F. ) ;
#65 = ADVANCED_FACE ( 'NONE', ( #74 ), #45, .F. ) ;
#66 = LINE ( 'NONE', #165, #223 ) ;
#67 = ORIENTED_EDGE ( 'NONE', *, *, #304, .T. ) ;
#68 = AXIS2_PLACEMENT_3D ( 'NONE', #33, #62, #221 ) ;
#69 = PRODUCT_DEFINITION_SHAPE ( 'NONE', 'NONE',  #136 ) ;
#70 = VECTOR ( 'NONE', #183, 1000.000000000000000 ) ;
#71 = EDGE_LOOP ( 'NONE', ( #244, #175, #190, #257 ) ) ;
#72 = VERTEX_POINT ( 'NONE', #203 ) ;
#73 = DIRECTION ( 'NONE',  ( 0.0000000000000000000, 0.0000000000000000000, 1.000000000000000000 ) ) ;
#74 = FACE_OUTER_BOUND ( 'NONE', #93, .T. ) ;
#75 = EDGE_CURVE ( 'NONE', #29, #213, #217, .T. ) ;
#76 = DIRECTION ( 'NONE',  ( 0.0000000000000000000, -0.0000000000000000000, -1.000000000000000000 ) ) ;
#77 = VECTOR ( 'NONE', #24, 1000.000000000000000 ) ;
#78 = DIRECTION ( 'NONE',  ( -0.0000000000000000000, -0.0000000000000000000, -1.000000000000000000 ) ) ;
#79 = PRODUCT ( '191774', '191774', '', ( #196 ) ) ;
#80 = DIRECTION ( 'NONE',  ( 0.0000000000000000000, 1.000000000000000000, 0.0000000000000000000 ) ) ;
#81 = AXIS2_PLACEMENT_3D ( 'NONE', #97, #44, #305 ) ;
#82 = FACE_OUTER_BOUND ( 'NONE', #233, .T. ) ;
#83 = ORIENTED_EDGE ( 'NONE', *, *, #104, .F. ) ;
#84 =( NAMED_UNIT ( * ) PLANE_ANGLE_UNIT ( ) SI_UNIT ( $, .RADIAN. ) );
#85 = AXIS2_PLACEMENT_3D ( 'NONE', #159, #80, #214 ) ;
#86 = DIRECTION ( 'NONE',  ( 0.0000000000000000000, -0.0000000000000000000, 1.000000000000000000 ) ) ;
#87 = EDGE_CURVE ( 'NONE', #43, #195, #103, .T. ) ;
#88 = LINE ( 'NONE', #51, #275 ) ;
#89 = DIRECTION ( 'NONE',  ( -1.000000000000000000, -0.0000000000000000000, -0.0000000000000000000 ) ) ;
#90 = ORIENTED_EDGE ( 'NONE', *, *, #14, .T. ) ;
#91 = ADVANCED_FACE ( 'NONE', ( #174 ), #52, .T. ) ;
#92 = ORIENTED_EDGE ( 'NONE', *, *, #134, .T. ) ;
#93 = EDGE_LOOP ( 'NONE', ( #187, #259, #123, #181 ) ) ;
#94 = EDGE_CURVE ( 'NONE', #302, #72, #186, .T. ) ;
#95 = UNCERTAINTY_MEASURE_WITH_UNIT (LENGTH_MEASURE( 1.000000000000000082E-05 ), #292, 'distance_accuracy_value', 'NONE');
#96 = ORIENTED_EDGE ( 'NONE', *, *, #142, .F. ) ;
#97 = CARTESIAN_POINT ( 'NONE',  ( 366.0000000000000000, 2.000000000000001332, 0.0000000000000000000 ) ) ;
#98 = UNCERTAINTY_MEASURE_WITH_UNIT (LENGTH_MEASURE( 1.000000000000000082E-05 ), #21, 'distance_accuracy_value', 'NONE');
#99 = CARTESIAN_POINT ( 'NONE',  ( 366.0000000000000000, -0.7499999999999986677, -10.00000000000000000 ) ) ;
#100 = DIRECTION ( 'NONE',  ( 0.0000000000000000000, 1.000000000000000000, 0.0000000000000000000 ) ) ;
#101 = CARTESIAN_POINT ( 'NONE',  ( 366.0000000000000000, 2.000000000000001332, -10.00000000000000000 ) ) ;
#102 = VECTOR ( 'NONE', #135, 1000.000000000000000 ) ;
#103 = LINE ( 'NONE', #332, #77 ) ;
#104 = EDGE_CURVE ( 'NONE', #334, #302, #258, .T. ) ;
#105 = CARTESIAN_POINT ( 'NONE',  ( 366.0000000000000000, 2.000000000000001332, -10.00000000000000000 ) ) ;
#106 = CARTESIAN_POINT ( 'NONE',  ( -6.000000000000000000, -1.999999999999998668, -10.00000000000000000 ) ) ;
#107 = VECTOR ( 'NONE', #89, 1000.000000000000000 ) ;
#108 = ORIENTED_EDGE ( 'NONE', *, *, #295, .T. ) ;
#109 = ORIENTED_EDGE ( 'NONE', *, *, #330, .F. ) ;
#110 = EDGE_CURVE ( 'NONE', #29, #303, #212, .T. ) ;
#111 = FILL_AREA_STYLE_COLOUR ( '', #169 ) ;
#112 = VECTOR ( 'NONE', #161, 1000.000000000000000 ) ;
#113 = VERTEX_POINT ( 'NONE', #281 ) ;
#114 = APPLICATION_PROTOCOL_DEFINITION ( 'draft international standard', 'automotive_design', 1998, #61 ) ;
#115 = VECTOR ( 'NONE', #331, 1000.000000000000000 ) ;
#116 = VECTOR ( 'NONE', #73, 1000.000000000000000 ) ;
#117 = ORIENTED_EDGE ( 'NONE', *, *, #251, .F. ) ;
#118 = LINE ( 'NONE', #164, #102 ) ;
#119 = ORIENTED_EDGE ( 'NONE', *, *, #94, .F. ) ;
#120 = EDGE_CURVE ( 'NONE', #15, #4, #252, .T. ) ;
#121 = DIRECTION ( 'NONE',  ( 1.000000000000000000, 0.0000000000000000000, 0.0000000000000000000 ) ) ;
#122 = SURFACE_SIDE_STYLE ('',( #204 ) ) ;
#123 = ORIENTED_EDGE ( 'NONE', *, *, #5, .F. ) ;
#124 = PLANE ( 'NONE',  #227 ) ;
#125 = PLANE ( 'NONE',  #31 ) ;
#126 = PRODUCT_RELATED_PRODUCT_CATEGORY ( 'part', '', ( #79 ) ) ;
#127 = VECTOR ( 'NONE', #189, 1000.000000000000000 ) ;
#128 = ORIENTED_EDGE ( 'NONE', *, *, #104, .T. ) ;
#129 = DIRECTION ( 'NONE',  ( -1.000000000000000000, 0.0000000000000000000, 0.0000000000000000000 ) ) ;
#130 = CARTESIAN_POINT ( 'NONE',  ( -6.000000000000000000, 2.000000000000001332, 0.0000000000000000000 ) ) ;
#131 = PLANE ( 'NONE',  #85 ) ;
#132 = EDGE_LOOP ( 'NONE', ( #254, #67, #19, #249 ) ) ;
#133 = EDGE_LOOP ( 'NONE', ( #90, #226, #20, #117 ) ) ;
#134 = EDGE_CURVE ( 'NONE', #205, #264, #198, .T. ) ;
#135 = DIRECTION ( 'NONE',  ( 0.0000000000000000000, 0.0000000000000000000, 1.000000000000000000 ) ) ;
#136 = PRODUCT_DEFINITION ( 'UNKNOWN', '', #153, #141 ) ;
#137 = VECTOR ( 'NONE', #100, 1000.000000000000000 ) ;
#138 = DIRECTION ( 'NONE',  ( 1.000000000000000000, 0.0000000000000000000, 0.0000000000000000000 ) ) ;
#139 = ORIENTED_EDGE ( 'NONE', *, *, #251, .T. ) ;
#140 = CARTESIAN_POINT ( 'NONE',  ( 366.0000000000000000, -1.999999999999998668, 0.0000000000000000000 ) ) ;
#141 = PRODUCT_DEFINITION_CONTEXT ( 'detailed design', #61, 'design' ) ;
#142 = EDGE_CURVE ( 'NONE', #303, #43, #88, .T. ) ;
#143 = LINE ( 'NONE', #285, #325 ) ;
#144 = VERTEX_POINT ( 'NONE', #239 ) ;
#145 = ORIENTED_EDGE ( 'NONE', *, *, #330, .T. ) ;
#146 = LINE ( 'NONE', #232, #149 ) ;
#147 = EDGE_CURVE ( 'NONE', #113, #195, #143, .T. ) ;
#148 = VECTOR ( 'NONE', #247, 1000.000000000000000 ) ;
#149 = VECTOR ( 'NONE', #178, 1000.000000000000000 ) ;
#150 = CARTESIAN_POINT ( 'NONE',  ( -6.000000000000000000, 2.000000000000001332, -10.00000000000000000 ) ) ;
#151 = DIRECTION ( 'NONE',  ( 0.0000000000000000000, -1.000000000000000000, 0.0000000000000000000 ) ) ;
#152 = CARTESIAN_POINT ( 'NONE',  ( -6.000000000000000000, 0.7500000000000013323, -10.00000000000000000 ) ) ;
#153 = PRODUCT_DEFINITION_FORMATION_WITH_SPECIFIED_SOURCE ( 'ANY', '', #79, .NOT_KNOWN. ) ;
#154 = FILL_AREA_STYLE ('',( #278 ) ) ;
#155 = PLANE ( 'NONE',  #324 ) ;
#156 =( GEOMETRIC_REPRESENTATION_CONTEXT ( 3 ) GLOBAL_UNCERTAINTY_ASSIGNED_CONTEXT ( ( #98 ) ) GLOBAL_UNIT_ASSIGNED_CONTEXT ( ( #21, #326, #209 ) ) REPRESENTATION_CONTEXT ( 'NONE', 'WORKASPACE' ) );
#157 = DIRECTION ( 'NONE',  ( -1.000000000000000000, -0.0000000000000000000, -0.0000000000000000000 ) ) ;
#158 = ORIENTED_EDGE ( 'NONE', *, *, #120, .F. ) ;
#159 = CARTESIAN_POINT ( 'NONE',  ( 366.0000000000000000, -1.999999999999998668, -10.00000000000000000 ) ) ;
#160 = DIRECTION ( 'NONE',  ( 0.0000000000000000000, 0.0000000000000000000, -1.000000000000000000 ) ) ;
#161 = DIRECTION ( 'NONE',  ( -0.0000000000000000000, -0.0000000000000000000, -1.000000000000000000 ) ) ;
#162 = VERTEX_POINT ( 'NONE', #105 ) ;
#163 = ORIENTED_EDGE ( 'NONE', *, *, #142, .T. ) ;
#164 = CARTESIAN_POINT ( 'NONE',  ( 366.0000000000000000, 2.000000000000001332, -10.00000000000000000 ) ) ;
#165 = CARTESIAN_POINT ( 'NONE',  ( 366.0000000000000000, 0.7500000000000013323, -22.00000000000000000 ) ) ;
#166 = SURFACE_SIDE_STYLE ('',( #238 ) ) ;
#167 = APPLICATION_CONTEXT ( 'automotive_design' ) ;
#168 = ADVANCED_FACE ( 'NONE', ( #173 ), #310, .F. ) ;
#169 = COLOUR_RGB ( '',0.7921568627450980005, 0.8196078431372548767, 0.9333333333333333481 ) ;
#170 = ORIENTED_EDGE ( 'NONE', *, *, #75, .T. ) ;
#171 = ADVANCED_FACE ( 'NONE', ( #263 ), #155, .F. ) ;
#172 = STYLED_ITEM ( 'NONE', ( #229 ), #49 ) ;
#173 = FACE_OUTER_BOUND ( 'NONE', #224, .T. ) ;
#174 = FACE_OUTER_BOUND ( 'NONE', #9, .T. ) ;
#175 = ORIENTED_EDGE ( 'NONE', *, *, #120, .T. ) ;
#176 = CARTESIAN_POINT ( 'NONE',  ( 366.0000000000000000, -0.7499999999999986677, -22.00000000000000000 ) ) ;
#177 = EDGE_CURVE ( 'NONE', #72, #29, #313, .T. ) ;
#178 = DIRECTION ( 'NONE',  ( -1.000000000000000000, -0.0000000000000000000, -0.0000000000000000000 ) ) ;
#179 = CARTESIAN_POINT ( 'NONE',  ( 366.0000000000000000, -0.7499999999999986677, -10.00000000000000000 ) ) ;
#180 = VECTOR ( 'NONE', #7, 1000.000000000000000 ) ;
#181 = ORIENTED_EDGE ( 'NONE', *, *, #295, .F. ) ;
#182 = CARTESIAN_POINT ( 'NONE',  ( 366.0000000000000000, 2.000000000000001332, 0.0000000000000000000 ) ) ;
#183 = DIRECTION ( 'NONE',  ( 0.0000000000000000000, -1.000000000000000000, 0.0000000000000000000 ) ) ;
#184 = UNCERTAINTY_MEASURE_WITH_UNIT (LENGTH_MEASURE( 1.000000000000000082E-05 ), #193, 'distance_accuracy_value', 'NONE');
#185 = CARTESIAN_POINT ( 'NONE',  ( 366.0000000000000000, 2.000000000000001332, -10.00000000000000000 ) ) ;
#186 = LINE ( 'NONE', #237, #41 ) ;
#187 = ORIENTED_EDGE ( 'NONE', *, *, #147, .T. ) ;
#188 = ADVANCED_FACE ( 'NONE', ( #59 ), #131, .F. ) ;
#189 = DIRECTION ( 'NONE',  ( -0.0000000000000000000, 1.000000000000000000, -0.0000000000000000000 ) ) ;
#190 = ORIENTED_EDGE ( 'NONE', *, *, #14, .F. ) ;
#191 = DIRECTION ( 'NONE',  ( 0.0000000000000000000, 0.0000000000000000000, 1.000000000000000000 ) ) ;
#192 =( NAMED_UNIT ( * ) PLANE_ANGLE_UNIT ( ) SI_UNIT ( $, .RADIAN. ) );
#193 =( LENGTH_UNIT ( ) NAMED_UNIT ( * ) SI_UNIT ( .MILLI., .METRE. ) );
#194 = VECTOR ( 'NONE', #48, 1000.000000000000000 ) ;
#195 = VERTEX_POINT ( 'NONE', #27 ) ;
#196 = PRODUCT_CONTEXT ( 'NONE', #167, 'mechanical' ) ;
#197 = CARTESIAN_POINT ( 'NONE',  ( 366.0000000000000000, -1.999999999999998668, -10.00000000000000000 ) ) ;
#198 = LINE ( 'NONE', #130, #70 ) ;
#199 = SHAPE_DEFINITION_REPRESENTATION ( #69, #207 ) ;
#200 = VERTEX_POINT ( 'NONE', #106 ) ;
#201 = ORIENTED_EDGE ( 'NONE', *, *, #75, .F. ) ;
#202 = EDGE_CURVE ( 'NONE', #144, #162, #283, .T. ) ;
#203 = CARTESIAN_POINT ( 'NONE',  ( 366.0000000000000000, -1.999999999999998668, -10.00000000000000000 ) ) ;
#204 = SURFACE_STYLE_FILL_AREA ( #154 ) ;
#205 = VERTEX_POINT ( 'NONE', #215 ) ;
#206 = CARTESIAN_POINT ( 'NONE',  ( 366.0000000000000000, 0.7500000000000013323, -22.00000000000000000 ) ) ;
#207 = ADVANCED_BREP_SHAPE_REPRESENTATION ( '191774', ( #49, #68 ), #316 ) ;
#208 = VECTOR ( 'NONE', #236, 1000.000000000000000 ) ;
#209 =( NAMED_UNIT ( * ) SI_UNIT ( $, .STERADIAN. ) SOLID_ANGLE_UNIT ( ) );
#210 = DIRECTION ( 'NONE',  ( 0.0000000000000000000, 0.0000000000000000000, 1.000000000000000000 ) ) ;
#211 = EDGE_CURVE ( 'NONE', #213, #43, #256, .T. ) ;
#212 = LINE ( 'NONE', #179, #194 ) ;
#213 = VERTEX_POINT ( 'NONE', #329 ) ;
#214 = DIRECTION ( 'NONE',  ( 0.0000000000000000000, -0.0000000000000000000, 1.000000000000000000 ) ) ;
#215 = CARTESIAN_POINT ( 'NONE',  ( -6.000000000000000000, 2.000000000000001332, 0.0000000000000000000 ) ) ;
#216 = AXIS2_PLACEMENT_3D ( 'NONE', #282, #55, #210 ) ;
#217 = LINE ( 'NONE', #241, #274 ) ;
#218 = CARTESIAN_POINT ( 'NONE',  ( -6.000000000000000000, -0.7499999999999986677, -10.00000000000000000 ) ) ;
#219 = ORIENTED_EDGE ( 'NONE', *, *, #320, .T. ) ;
#220 = DIRECTION ( 'NONE',  ( -0.0000000000000000000, 1.000000000000000000, 0.0000000000000000000 ) ) ;
#221 = DIRECTION ( 'NONE',  ( 1.000000000000000000, 0.0000000000000000000, 0.0000000000000000000 ) ) ;
#222 = DIRECTION ( 'NONE',  ( -0.0000000000000000000, 0.0000000000000000000, 1.000000000000000000 ) ) ;
#223 = VECTOR ( 'NONE', #57, 1000.000000000000000 ) ;
#224 = EDGE_LOOP ( 'NONE', ( #128, #38, #333, #170, #328, #108, #53, #139 ) ) ;
#225 = ORIENTED_EDGE ( 'NONE', *, *, #320, .F. ) ;
#226 = ORIENTED_EDGE ( 'NONE', *, *, #22, .T. ) ;
#227 = AXIS2_PLACEMENT_3D ( 'NONE', #101, #151, #16 ) ;
#228 = LINE ( 'NONE', #270, #112 ) ;
#229 = PRESENTATION_STYLE_ASSIGNMENT (( #299 ) ) ;
#230 = EDGE_CURVE ( 'NONE', #72, #200, #271, .T. ) ;
#231 = DIRECTION ( 'NONE',  ( -0.0000000000000000000, 0.0000000000000000000, 1.000000000000000000 ) ) ;
#232 = CARTESIAN_POINT ( 'NONE',  ( 366.0000000000000000, 2.000000000000001332, 0.0000000000000000000 ) ) ;
#233 = EDGE_LOOP ( 'NONE', ( #260, #92, #225, #83 ) ) ;
#234 = DIRECTION ( 'NONE',  ( -1.000000000000000000, -0.0000000000000000000, -0.0000000000000000000 ) ) ;
#235 = EDGE_CURVE ( 'NONE', #195, #15, #300, .T. ) ;
#236 = DIRECTION ( 'NONE',  ( -1.000000000000000000, -0.0000000000000000000, -0.0000000000000000000 ) ) ;
#237 = CARTESIAN_POINT ( 'NONE',  ( 366.0000000000000000, -1.999999999999998668, -10.00000000000000000 ) ) ;
#238 = SURFACE_STYLE_FILL_AREA ( #318 ) ;
#239 = CARTESIAN_POINT ( 'NONE',  ( 366.0000000000000000, 0.7500000000000013323, -10.00000000000000000 ) ) ;
#240 = CARTESIAN_POINT ( 'NONE',  ( 366.0000000000000000, -0.7499999999999986677, -22.00000000000000000 ) ) ;
#241 = CARTESIAN_POINT ( 'NONE',  ( 366.0000000000000000, -0.7499999999999986677, -10.00000000000000000 ) ) ;
#242 = LINE ( 'NONE', #140, #148 ) ;
#243 = LINE ( 'NONE', #150, #116 ) ;
#244 = ORIENTED_EDGE ( 'NONE', *, *, #5, .T. ) ;
#245 = CARTESIAN_POINT ( 'NONE',  ( -6.000000000000000000, 0.7500000000000013323, -22.00000000000000000 ) ) ;
#246 = PLANE ( 'NONE',  #322 ) ;
#247 = DIRECTION ( 'NONE',  ( -1.000000000000000000, -0.0000000000000000000, -0.0000000000000000000 ) ) ;
#248 = VECTOR ( 'NONE', #191, 1000.000000000000000 ) ;
#249 = ORIENTED_EDGE ( 'NONE', *, *, #177, .F. ) ;
#250 = APPLICATION_PROTOCOL_DEFINITION ( 'draft international standard', 'automotive_design', 1998, #167 ) ;
#251 = EDGE_CURVE ( 'NONE', #162, #334, #118, .T. ) ;
#252 = LINE ( 'NONE', #280, #293 ) ;
#253 = LINE ( 'NONE', #176, #137 ) ;
#254 = ORIENTED_EDGE ( 'NONE', *, *, #230, .T. ) ;
#255 = AXIS2_PLACEMENT_3D ( 'NONE', #206, #301, #76 ) ;
#256 = LINE ( 'NONE', #306, #107 ) ;
#257 = ORIENTED_EDGE ( 'NONE', *, *, #202, .F. ) ;
#258 = LINE ( 'NONE', #182, #115 ) ;
#259 = ORIENTED_EDGE ( 'NONE', *, *, #235, .T. ) ;
#260 = ORIENTED_EDGE ( 'NONE', *, *, #58, .T. ) ;
#261 = PRESENTATION_LAYER_ASSIGNMENT (  '', '', ( #287 ) ) ;
#262 =( GEOMETRIC_REPRESENTATION_CONTEXT ( 3 ) GLOBAL_UNCERTAINTY_ASSIGNED_CONTEXT ( ( #95 ) ) GLOBAL_UNIT_ASSIGNED_CONTEXT ( ( #292, #192, #30 ) ) REPRESENTATION_CONTEXT ( 'NONE', 'WORKASPACE' ) );
#263 = FACE_OUTER_BOUND ( 'NONE', #12, .T. ) ;
#264 = VERTEX_POINT ( 'NONE', #317 ) ;
#265 = PRESENTATION_LAYER_ASSIGNMENT (  '', '', ( #172 ) ) ;
#266 = DIRECTION ( 'NONE',  ( 1.000000000000000000, 0.0000000000000000000, -0.0000000000000000000 ) ) ;
#267 = DIRECTION ( 'NONE',  ( -0.0000000000000000000, 1.000000000000000000, -0.0000000000000000000 ) ) ;
#268 = CARTESIAN_POINT ( 'NONE',  ( 366.0000000000000000, -1.999999999999998668, 0.0000000000000000000 ) ) ;
#269 = VECTOR ( 'NONE', #267, 1000.000000000000000 ) ;
#270 = CARTESIAN_POINT ( 'NONE',  ( -6.000000000000000000, -1.999999999999998668, -10.00000000000000000 ) ) ;
#271 = LINE ( 'NONE', #197, #47 ) ;
#272 = COLOUR_RGB ( '',0.7921568627450980005, 0.8196078431372548767, 0.9333333333333333481 ) ;
#273 = EDGE_LOOP ( 'NONE', ( #288, #163, #308, #201 ) ) ;
#274 = VECTOR ( 'NONE', #50, 1000.000000000000000 ) ;
#275 = VECTOR ( 'NONE', #160, 1000.000000000000000 ) ;
#276 = ORIENTED_EDGE ( 'NONE', *, *, #134, .F. ) ;
#277 = CARTESIAN_POINT ( 'NONE',  ( 366.0000000000000000, 2.000000000000001332, -10.00000000000000000 ) ) ;
#278 = FILL_AREA_STYLE_COLOUR ( '', #272 ) ;
#279 = ORIENTED_EDGE ( 'NONE', *, *, #147, .F. ) ;
#280 = CARTESIAN_POINT ( 'NONE',  ( -6.000000000000000000, 2.000000000000001332, -10.00000000000000000 ) ) ;
#281 = CARTESIAN_POINT ( 'NONE',  ( 366.0000000000000000, 0.7500000000000013323, -22.00000000000000000 ) ) ;
#282 = CARTESIAN_POINT ( 'NONE',  ( -6.000000000000000000, 0.0000000000000000000, 0.0000000000000000000 ) ) ;
#283 = LINE ( 'NONE', #185, #269 ) ;
#284 = LINE ( 'NONE', #298, #297 ) ;
#285 = CARTESIAN_POINT ( 'NONE',  ( 366.0000000000000000, 0.7500000000000013323, -22.00000000000000000 ) ) ;
#286 = CARTESIAN_POINT ( 'NONE',  ( 366.0000000000000000, -0.7499999999999986677, -10.00000000000000000 ) ) ;
#287 = STYLED_ITEM ( 'NONE', ( #296 ), #207 ) ;
#288 = ORIENTED_EDGE ( 'NONE', *, *, #110, .T. ) ;
#289 = CARTESIAN_POINT ( 'NONE',  ( 366.0000000000000000, -0.7499999999999986677, -10.00000000000000000 ) ) ;
#290 =( NAMED_UNIT ( * ) SI_UNIT ( $, .STERADIAN. ) SOLID_ANGLE_UNIT ( ) );
#291 = AXIS2_PLACEMENT_3D ( 'NONE', #312, #129, #309 ) ;
#292 =( LENGTH_UNIT ( ) NAMED_UNIT ( * ) SI_UNIT ( .MILLI., .METRE. ) );
#293 = VECTOR ( 'NONE', #26, 1000.000000000000000 ) ;
#294 = ORIENTED_EDGE ( 'NONE', *, *, #235, .F. ) ;
#295 = EDGE_CURVE ( 'NONE', #113, #144, #66, .T. ) ;
#296 = PRESENTATION_STYLE_ASSIGNMENT (( #8 ) ) ;
#297 = VECTOR ( 'NONE', #234, 1000.000000000000000 ) ;
#298 = CARTESIAN_POINT ( 'NONE',  ( 366.0000000000000000, 2.000000000000001332, -10.00000000000000000 ) ) ;
#299 = SURFACE_STYLE_USAGE ( .BOTH. , #122 ) ;
#300 = LINE ( 'NONE', #245, #248 ) ;
#301 = DIRECTION ( 'NONE',  ( 0.0000000000000000000, -1.000000000000000000, 0.0000000000000000000 ) ) ;
#302 = VERTEX_POINT ( 'NONE', #268 ) ;
#303 = VERTEX_POINT ( 'NONE', #3 ) ;
#304 = EDGE_CURVE ( 'NONE', #200, #303, #323, .T. ) ;
#305 = DIRECTION ( 'NONE',  ( -1.000000000000000000, 0.0000000000000000000, -0.0000000000000000000 ) ) ;
#306 = CARTESIAN_POINT ( 'NONE',  ( 366.0000000000000000, -0.7499999999999986677, -22.00000000000000000 ) ) ;
#307 = FACE_OUTER_BOUND ( 'NONE', #273, .T. ) ;
#308 = ORIENTED_EDGE ( 'NONE', *, *, #211, .F. ) ;
#309 = DIRECTION ( 'NONE',  ( 0.0000000000000000000, 0.0000000000000000000, 1.000000000000000000 ) ) ;
#310 = PLANE ( 'NONE',  #291 ) ;
#311 = ADVANCED_FACE ( 'NONE', ( #36 ), #60, .F. ) ;
#312 = CARTESIAN_POINT ( 'NONE',  ( 366.0000000000000000, 0.0000000000000000000, 0.0000000000000000000 ) ) ;
#313 = LINE ( 'NONE', #286, #127 ) ;
#314 = EDGE_LOOP ( 'NONE', ( #219, #145, #35, #119 ) ) ;
#315 = ADVANCED_FACE ( 'NONE', ( #307 ), #246, .F. ) ;
#316 =( GEOMETRIC_REPRESENTATION_CONTEXT ( 3 ) GLOBAL_UNCERTAINTY_ASSIGNED_CONTEXT ( ( #184 ) ) GLOBAL_UNIT_ASSIGNED_CONTEXT ( ( #193, #84, #290 ) ) REPRESENTATION_CONTEXT ( 'NONE', 'WORKASPACE' ) );
#317 = CARTESIAN_POINT ( 'NONE',  ( -6.000000000000000000, -1.999999999999998668, 0.0000000000000000000 ) ) ;
#318 = FILL_AREA_STYLE ('',( #111 ) ) ;
#319 = ORIENTED_EDGE ( 'NONE', *, *, #87, .T. ) ;
#320 = EDGE_CURVE ( 'NONE', #302, #264, #242, .T. ) ;
#321 = ORIENTED_EDGE ( 'NONE', *, *, #211, .T. ) ;
#322 = AXIS2_PLACEMENT_3D ( 'NONE', #32, #220, #86 ) ;
#323 = LINE ( 'NONE', #218, #180 ) ;
#324 = AXIS2_PLACEMENT_3D ( 'NONE', #240, #23, #266 ) ;
#325 = VECTOR ( 'NONE', #157, 1000.000000000000000 ) ;
#326 =( NAMED_UNIT ( * ) PLANE_ANGLE_UNIT ( ) SI_UNIT ( $, .RADIAN. ) );
#327 = CARTESIAN_POINT ( 'NONE',  ( -6.000000000000000000, -0.7499999999999986677, -22.00000000000000000 ) ) ;
#328 = ORIENTED_EDGE ( 'NONE', *, *, #34, .T. ) ;
#329 = CARTESIAN_POINT ( 'NONE',  ( 366.0000000000000000, -0.7499999999999986677, -22.00000000000000000 ) ) ;
#330 = EDGE_CURVE ( 'NONE', #264, #200, #228, .T. ) ;
#331 = DIRECTION ( 'NONE',  ( 0.0000000000000000000, -1.000000000000000000, 0.0000000000000000000 ) ) ;
#332 = CARTESIAN_POINT ( 'NONE',  ( -6.000000000000000000, -0.7499999999999986677, -22.00000000000000000 ) ) ;
#333 = ORIENTED_EDGE ( 'NONE', *, *, #177, .T. ) ;
#334 = VERTEX_POINT ( 'NONE', #2 ) ;
ENDSEC;
END-ISO-10303-21;
