ISO-10303-21;
HEADER;
FILE_DESCRIPTION (( 'STEP AP214' ),
    '1' );
FILE_NAME ('191727.STEP',
    '2020-02-13T11:31:52',
    ( '' ),
    ( '' ),
    'SwSTEP 2.0',
    'SolidWorks 2018',
    '' );
FILE_SCHEMA (( 'AUTOMOTIVE_DESIGN' ));
ENDSEC;

DATA;
#1 = EDGE_CURVE ( 'NONE', #308, #297, #172, .T. ) ;
#2 = LINE ( 'NONE', #298, #264 ) ;
#3 = CARTESIAN_POINT ( 'NONE',  ( 114.0000000000000000, -1.999999999999998668, 0.0000000000000000000 ) ) ;
#4 = CARTESIAN_POINT ( 'NONE',  ( 114.0000000000000000, 2.000000000000001332, -10.00000000000000000 ) ) ;
#5 = CARTESIAN_POINT ( 'NONE',  ( 114.0000000000000000, 2.000000000000001332, -10.00000000000000000 ) ) ;
#6 = ORIENTED_EDGE ( 'NONE', *, *, #305, .F. ) ;
#7 = CARTESIAN_POINT ( 'NONE',  ( 114.0000000000000000, 0.7500000000000013323, -10.00000000000000000 ) ) ;
#8 = LINE ( 'NONE', #3, #204 ) ;
#9 = AXIS2_PLACEMENT_3D ( 'NONE', #259, #128, #14 ) ;
#10 = LINE ( 'NONE', #110, #318 ) ;
#11 = DIRECTION ( 'NONE',  ( -1.000000000000000000, -0.0000000000000000000, -0.0000000000000000000 ) ) ;
#12 = CARTESIAN_POINT ( 'NONE',  ( 114.0000000000000000, 2.000000000000001332, -10.00000000000000000 ) ) ;
#13 = VERTEX_POINT ( 'NONE', #99 ) ;
#14 = DIRECTION ( 'NONE',  ( 1.000000000000000000, 0.0000000000000000000, -0.0000000000000000000 ) ) ;
#15 = EDGE_LOOP ( 'NONE', ( #316, #29, #299, #219 ) ) ;
#16 = ADVANCED_FACE ( 'NONE', ( #249 ), #284, .F. ) ;
#17 =( NAMED_UNIT ( * ) PLANE_ANGLE_UNIT ( ) SI_UNIT ( $, .RADIAN. ) );
#18 = LINE ( 'NONE', #238, #97 ) ;
#19 = LINE ( 'NONE', #269, #324 ) ;
#20 = VERTEX_POINT ( 'NONE', #4 ) ;
#21 = COLOUR_RGB ( '',0.7921568627450980005, 0.8196078431372548767, 0.9333333333333333481 ) ;
#22 = STYLED_ITEM ( 'NONE', ( #288 ), #75 ) ;
#23 = EDGE_LOOP ( 'NONE', ( #32, #67, #6, #177 ) ) ;
#24 = DIRECTION ( 'NONE',  ( 1.000000000000000000, 0.0000000000000000000, 0.0000000000000000000 ) ) ;
#25 = UNCERTAINTY_MEASURE_WITH_UNIT (LENGTH_MEASURE( 1.000000000000000082E-05 ), #46, 'distance_accuracy_value', 'NONE');
#26 =( NAMED_UNIT ( * ) PLANE_ANGLE_UNIT ( ) SI_UNIT ( $, .RADIAN. ) );
#27 = DIRECTION ( 'NONE',  ( 0.0000000000000000000, 0.0000000000000000000, -1.000000000000000000 ) ) ;
#28 = PLANE ( 'NONE',  #170 ) ;
#29 = ORIENTED_EDGE ( 'NONE', *, *, #54, .T. ) ;
#30 = CARTESIAN_POINT ( 'NONE',  ( 0.0000000000000000000, 0.0000000000000000000, 0.0000000000000000000 ) ) ;
#31 = VERTEX_POINT ( 'NONE', #207 ) ;
#32 = ORIENTED_EDGE ( 'NONE', *, *, #132, .T. ) ;
#33 = EDGE_LOOP ( 'NONE', ( #93, #44, #232, #225 ) ) ;
#34 = EDGE_CURVE ( 'NONE', #155, #13, #181, .T. ) ;
#35 = CARTESIAN_POINT ( 'NONE',  ( -6.000000000000000000, -0.7499999999999986677, -22.00000000000000000 ) ) ;
#36 = DIRECTION ( 'NONE',  ( 0.0000000000000000000, 1.000000000000000000, 0.0000000000000000000 ) ) ;
#37 = VERTEX_POINT ( 'NONE', #150 ) ;
#38 = CARTESIAN_POINT ( 'NONE',  ( -6.000000000000000000, -1.999999999999998668, -10.00000000000000000 ) ) ;
#39 = VECTOR ( 'NONE', #203, 1000.000000000000000 ) ;
#40 = SURFACE_STYLE_FILL_AREA ( #323 ) ;
#41 = VERTEX_POINT ( 'NONE', #216 ) ;
#42 = LINE ( 'NONE', #283, #106 ) ;
#43 = ADVANCED_FACE ( 'NONE', ( #122 ), #28, .T. ) ;
#44 = ORIENTED_EDGE ( 'NONE', *, *, #229, .T. ) ;
#45 = CARTESIAN_POINT ( 'NONE',  ( 114.0000000000000000, -1.999999999999998668, 0.0000000000000000000 ) ) ;
#46 =( LENGTH_UNIT ( ) NAMED_UNIT ( * ) SI_UNIT ( .MILLI., .METRE. ) );
#47 = ADVANCED_FACE ( 'NONE', ( #118 ), #104, .F. ) ;
#48 = EDGE_CURVE ( 'NONE', #20, #239, #19, .T. ) ;
#49 = APPLICATION_CONTEXT ( 'automotive_design' ) ;
#50 = LINE ( 'NONE', #120, #263 ) ;
#51 = DIRECTION ( 'NONE',  ( -1.000000000000000000, -0.0000000000000000000, -0.0000000000000000000 ) ) ;
#52 = CARTESIAN_POINT ( 'NONE',  ( 114.0000000000000000, -0.7499999999999986677, -10.00000000000000000 ) ) ;
#53 = APPLICATION_PROTOCOL_DEFINITION ( 'draft international standard', 'automotive_design', 1998, #285 ) ;
#54 = EDGE_CURVE ( 'NONE', #61, #31, #154, .T. ) ;
#55 = CARTESIAN_POINT ( 'NONE',  ( 114.0000000000000000, 2.000000000000001332, -10.00000000000000000 ) ) ;
#56 = VERTEX_POINT ( 'NONE', #265 ) ;
#57 =( GEOMETRIC_REPRESENTATION_CONTEXT ( 3 ) GLOBAL_UNCERTAINTY_ASSIGNED_CONTEXT ( ( #25 ) ) GLOBAL_UNIT_ASSIGNED_CONTEXT ( ( #46, #148, #334 ) ) REPRESENTATION_CONTEXT ( 'NONE', 'WORKASPACE' ) );
#58 = ORIENTED_EDGE ( 'NONE', *, *, #209, .F. ) ;
#59 = PLANE ( 'NONE',  #313 ) ;
#60 = DIRECTION ( 'NONE',  ( -1.000000000000000000, 0.0000000000000000000, 0.0000000000000000000 ) ) ;
#61 = VERTEX_POINT ( 'NONE', #88 ) ;
#62 = DIRECTION ( 'NONE',  ( 0.0000000000000000000, -0.0000000000000000000, 1.000000000000000000 ) ) ;
#63 = PLANE ( 'NONE',  #139 ) ;
#64 = DIRECTION ( 'NONE',  ( 0.0000000000000000000, -0.0000000000000000000, -1.000000000000000000 ) ) ;
#65 = SURFACE_STYLE_FILL_AREA ( #310 ) ;
#66 = DIRECTION ( 'NONE',  ( -0.0000000000000000000, 1.000000000000000000, -0.0000000000000000000 ) ) ;
#67 = ORIENTED_EDGE ( 'NONE', *, *, #281, .T. ) ;
#68 = ORIENTED_EDGE ( 'NONE', *, *, #73, .F. ) ;
#69 = ADVANCED_FACE ( 'NONE', ( #107 ), #138, .F. ) ;
#70 = ORIENTED_EDGE ( 'NONE', *, *, #113, .F. ) ;
#71 = PRESENTATION_LAYER_ASSIGNMENT (  '', '', ( #22 ) ) ;
#72 = ORIENTED_EDGE ( 'NONE', *, *, #73, .T. ) ;
#73 = EDGE_CURVE ( 'NONE', #31, #330, #254, .T. ) ;
#74 = ORIENTED_EDGE ( 'NONE', *, *, #1, .T. ) ;
#75 = MANIFOLD_SOLID_BREP ( 'Aufsatz-Linear austragen1', #133 ) ;
#76 = CARTESIAN_POINT ( 'NONE',  ( 114.0000000000000000, -0.7499999999999986677, -10.00000000000000000 ) ) ;
#77 = SHAPE_DEFINITION_REPRESENTATION ( #109, #290 ) ;
#78 = CARTESIAN_POINT ( 'NONE',  ( -6.000000000000000000, 2.000000000000001332, -10.00000000000000000 ) ) ;
#79 = APPLICATION_PROTOCOL_DEFINITION ( 'draft international standard', 'automotive_design', 1998, #49 ) ;
#80 = DIRECTION ( 'NONE',  ( -0.0000000000000000000, 0.0000000000000000000, 1.000000000000000000 ) ) ;
#81 = ORIENTED_EDGE ( 'NONE', *, *, #250, .F. ) ;
#82 = CARTESIAN_POINT ( 'NONE',  ( -6.000000000000000000, -0.7499999999999986677, -10.00000000000000000 ) ) ;
#83 = VECTOR ( 'NONE', #192, 1000.000000000000000 ) ;
#84 = ORIENTED_EDGE ( 'NONE', *, *, #175, .T. ) ;
#85 = EDGE_LOOP ( 'NONE', ( #306, #129, #205, #277 ) ) ;
#86 = DIRECTION ( 'NONE',  ( -0.0000000000000000000, 1.000000000000000000, 0.0000000000000000000 ) ) ;
#87 = VECTOR ( 'NONE', #189, 1000.000000000000000 ) ;
#88 = CARTESIAN_POINT ( 'NONE',  ( -6.000000000000000000, -0.7499999999999986677, -22.00000000000000000 ) ) ;
#89 = EDGE_CURVE ( 'NONE', #246, #20, #10, .T. ) ;
#90 = EDGE_LOOP ( 'NONE', ( #171, #95, #94, #147 ) ) ;
#91 = LINE ( 'NONE', #112, #160 ) ;
#92 = AXIS2_PLACEMENT_3D ( 'NONE', #105, #27, #319 ) ;
#93 = ORIENTED_EDGE ( 'NONE', *, *, #48, .T. ) ;
#94 = ORIENTED_EDGE ( 'NONE', *, *, #327, .F. ) ;
#95 = ORIENTED_EDGE ( 'NONE', *, *, #209, .T. ) ;
#96 = ADVANCED_FACE ( 'NONE', ( #273 ), #292, .F. ) ;
#97 = VECTOR ( 'NONE', #198, 1000.000000000000000 ) ;
#98 = LINE ( 'NONE', #38, #280 ) ;
#99 = CARTESIAN_POINT ( 'NONE',  ( -6.000000000000000000, -1.999999999999998668, -10.00000000000000000 ) ) ;
#100 = EDGE_CURVE ( 'NONE', #56, #274, #131, .T. ) ;
#101 = DIRECTION ( 'NONE',  ( -1.000000000000000000, -0.0000000000000000000, -0.0000000000000000000 ) ) ;
#102 = VECTOR ( 'NONE', #268, 1000.000000000000000 ) ;
#103 = SURFACE_SIDE_STYLE ('',( #65 ) ) ;
#104 = PLANE ( 'NONE',  #9 ) ;
#105 = CARTESIAN_POINT ( 'NONE',  ( 114.0000000000000000, 2.000000000000001332, 0.0000000000000000000 ) ) ;
#106 = VECTOR ( 'NONE', #255, 1000.000000000000000 ) ;
#107 = FACE_OUTER_BOUND ( 'NONE', #267, .T. ) ;
#108 = MECHANICAL_DESIGN_GEOMETRIC_PRESENTATION_REPRESENTATION (  '', ( #322 ), #57 ) ;
#109 = PRODUCT_DEFINITION_SHAPE ( 'NONE', 'NONE',  #201 ) ;
#110 = CARTESIAN_POINT ( 'NONE',  ( 114.0000000000000000, 2.000000000000001332, -10.00000000000000000 ) ) ;
#111 = VECTOR ( 'NONE', #174, 1000.000000000000000 ) ;
#112 = CARTESIAN_POINT ( 'NONE',  ( 114.0000000000000000, -0.7499999999999986677, -10.00000000000000000 ) ) ;
#113 = EDGE_CURVE ( 'NONE', #226, #246, #235, .T. ) ;
#114 = SURFACE_SIDE_STYLE ('',( #40 ) ) ;
#115 = DIRECTION ( 'NONE',  ( 0.0000000000000000000, 1.000000000000000000, 0.0000000000000000000 ) ) ;
#116 = LINE ( 'NONE', #153, #39 ) ;
#117 = AXIS2_PLACEMENT_3D ( 'NONE', #52, #253, #124 ) ;
#118 = FACE_OUTER_BOUND ( 'NONE', #15, .T. ) ;
#119 = AXIS2_PLACEMENT_3D ( 'NONE', #55, #214, #64 ) ;
#120 = CARTESIAN_POINT ( 'NONE',  ( 114.0000000000000000, -0.7499999999999986677, -22.00000000000000000 ) ) ;
#121 =( LENGTH_UNIT ( ) NAMED_UNIT ( * ) SI_UNIT ( .MILLI., .METRE. ) );
#122 = FACE_OUTER_BOUND ( 'NONE', #202, .T. ) ;
#123 = DIRECTION ( 'NONE',  ( -1.000000000000000000, -0.0000000000000000000, -0.0000000000000000000 ) ) ;
#124 = DIRECTION ( 'NONE',  ( 1.000000000000000000, 0.0000000000000000000, 0.0000000000000000000 ) ) ;
#125 = ADVANCED_FACE ( 'NONE', ( #162 ), #63, .F. ) ;
#126 = EDGE_CURVE ( 'NONE', #274, #155, #2, .T. ) ;
#127 = VECTOR ( 'NONE', #182, 1000.000000000000000 ) ;
#128 = DIRECTION ( 'NONE',  ( 0.0000000000000000000, 0.0000000000000000000, 1.000000000000000000 ) ) ;
#129 = ORIENTED_EDGE ( 'NONE', *, *, #250, .T. ) ;
#130 = LINE ( 'NONE', #82, #272 ) ;
#131 = LINE ( 'NONE', #218, #247 ) ;
#132 = EDGE_CURVE ( 'NONE', #308, #41, #91, .T. ) ;
#133 = CLOSED_SHELL ( 'NONE', ( #16, #69, #243, #96, #47, #195, #302, #184, #125, #43 ) ) ;
#134 = CARTESIAN_POINT ( 'NONE',  ( 114.0000000000000000, 2.000000000000001332, 0.0000000000000000000 ) ) ;
#135 = AXIS2_PLACEMENT_3D ( 'NONE', #30, #152, #24 ) ;
#136 = ORIENTED_EDGE ( 'NONE', *, *, #281, .F. ) ;
#137 = DIRECTION ( 'NONE',  ( 0.0000000000000000000, -0.0000000000000000000, 1.000000000000000000 ) ) ;
#138 = PLANE ( 'NONE',  #289 ) ;
#139 = AXIS2_PLACEMENT_3D ( 'NONE', #237, #266, #242 ) ;
#140 = DIRECTION ( 'NONE',  ( 0.0000000000000000000, -0.0000000000000000000, -1.000000000000000000 ) ) ;
#141 = ORIENTED_EDGE ( 'NONE', *, *, #194, .T. ) ;
#142 = ORIENTED_EDGE ( 'NONE', *, *, #48, .F. ) ;
#143 = ORIENTED_EDGE ( 'NONE', *, *, #100, .T. ) ;
#144 = PRODUCT_DEFINITION_FORMATION_WITH_SPECIFIED_SOURCE ( 'ANY', '', #241, .NOT_KNOWN. ) ;
#145 = CARTESIAN_POINT ( 'NONE',  ( 114.0000000000000000, -0.7499999999999986677, -22.00000000000000000 ) ) ;
#146 = FACE_OUTER_BOUND ( 'NONE', #85, .T. ) ;
#147 = ORIENTED_EDGE ( 'NONE', *, *, #100, .F. ) ;
#148 =( NAMED_UNIT ( * ) PLANE_ANGLE_UNIT ( ) SI_UNIT ( $, .RADIAN. ) );
#149 = DIRECTION ( 'NONE',  ( 0.0000000000000000000, 0.0000000000000000000, 1.000000000000000000 ) ) ;
#150 = CARTESIAN_POINT ( 'NONE',  ( -6.000000000000000000, 2.000000000000001332, 0.0000000000000000000 ) ) ;
#151 = EDGE_CURVE ( 'NONE', #56, #37, #227, .T. ) ;
#152 = DIRECTION ( 'NONE',  ( 0.0000000000000000000, 0.0000000000000000000, 1.000000000000000000 ) ) ;
#153 = CARTESIAN_POINT ( 'NONE',  ( -6.000000000000000000, -0.7499999999999986677, -10.00000000000000000 ) ) ;
#154 = LINE ( 'NONE', #35, #215 ) ;
#155 = VERTEX_POINT ( 'NONE', #245 ) ;
#156 = CARTESIAN_POINT ( 'NONE',  ( -6.000000000000000000, 0.0000000000000000000, 0.0000000000000000000 ) ) ;
#157 = ORIENTED_EDGE ( 'NONE', *, *, #229, .F. ) ;
#158 = EDGE_CURVE ( 'NONE', #190, #13, #98, .T. ) ;
#159 = ORIENTED_EDGE ( 'NONE', *, *, #113, .T. ) ;
#160 = VECTOR ( 'NONE', #11, 1000.000000000000000 ) ;
#161 = CARTESIAN_POINT ( 'NONE',  ( 114.0000000000000000, -0.7499999999999986677, -10.00000000000000000 ) ) ;
#162 = FACE_OUTER_BOUND ( 'NONE', #321, .T. ) ;
#163 = DIRECTION ( 'NONE',  ( -0.0000000000000000000, 1.000000000000000000, -0.0000000000000000000 ) ) ;
#164 = EDGE_CURVE ( 'NONE', #155, #308, #293, .T. ) ;
#165 = FILL_AREA_STYLE_COLOUR ( '', #21 ) ;
#166 = PRODUCT_RELATED_PRODUCT_CATEGORY ( 'part', '', ( #241 ) ) ;
#167 =( LENGTH_UNIT ( ) NAMED_UNIT ( * ) SI_UNIT ( .MILLI., .METRE. ) );
#168 = COLOUR_RGB ( '',0.7921568627450980005, 0.8196078431372548767, 0.9333333333333333481 ) ;
#169 = ORIENTED_EDGE ( 'NONE', *, *, #34, .F. ) ;
#170 = AXIS2_PLACEMENT_3D ( 'NONE', #156, #60, #236 ) ;
#171 = ORIENTED_EDGE ( 'NONE', *, *, #151, .T. ) ;
#172 = LINE ( 'NONE', #311, #301 ) ;
#173 = PLANE ( 'NONE',  #119 ) ;
#174 = DIRECTION ( 'NONE',  ( -1.000000000000000000, -0.0000000000000000000, -0.0000000000000000000 ) ) ;
#175 = EDGE_CURVE ( 'NONE', #20, #56, #317, .T. ) ;
#176 = LINE ( 'NONE', #78, #187 ) ;
#177 = ORIENTED_EDGE ( 'NONE', *, *, #1, .F. ) ;
#178 = CARTESIAN_POINT ( 'NONE',  ( 114.0000000000000000, 0.7500000000000013323, -22.00000000000000000 ) ) ;
#179 = CARTESIAN_POINT ( 'NONE',  ( 114.0000000000000000, -1.999999999999998668, -10.00000000000000000 ) ) ;
#180 = LINE ( 'NONE', #178, #213 ) ;
#181 = LINE ( 'NONE', #179, #206 ) ;
#182 = DIRECTION ( 'NONE',  ( 0.0000000000000000000, -1.000000000000000000, 0.0000000000000000000 ) ) ;
#183 = SURFACE_STYLE_USAGE ( .BOTH. , #103 ) ;
#184 = ADVANCED_FACE ( 'NONE', ( #223 ), #173, .F. ) ;
#185 = EDGE_CURVE ( 'NONE', #246, #330, #196, .T. ) ;
#186 = LINE ( 'NONE', #210, #127 ) ;
#187 = VECTOR ( 'NONE', #149, 1000.000000000000000 ) ;
#188 = ORIENTED_EDGE ( 'NONE', *, *, #126, .T. ) ;
#189 = DIRECTION ( 'NONE',  ( 0.0000000000000000000, 0.0000000000000000000, 1.000000000000000000 ) ) ;
#190 = VERTEX_POINT ( 'NONE', #271 ) ;
#191 = CARTESIAN_POINT ( 'NONE',  ( -6.000000000000000000, 0.7500000000000013323, -22.00000000000000000 ) ) ;
#192 = DIRECTION ( 'NONE',  ( -1.000000000000000000, -0.0000000000000000000, -0.0000000000000000000 ) ) ;
#193 = ORIENTED_EDGE ( 'NONE', *, *, #54, .F. ) ;
#194 = EDGE_CURVE ( 'NONE', #297, #226, #18, .T. ) ;
#195 = ADVANCED_FACE ( 'NONE', ( #300 ), #59, .F. ) ;
#196 = LINE ( 'NONE', #320, #111 ) ;
#197 = EDGE_CURVE ( 'NONE', #226, #31, #180, .T. ) ;
#198 = DIRECTION ( 'NONE',  ( 0.0000000000000000000, 1.000000000000000000, 0.0000000000000000000 ) ) ;
#199 = PRESENTATION_STYLE_ASSIGNMENT (( #183 ) ) ;
#200 = ORIENTED_EDGE ( 'NONE', *, *, #185, .F. ) ;
#201 = PRODUCT_DEFINITION ( 'UNKNOWN', '', #144, #295 ) ;
#202 = EDGE_LOOP ( 'NONE', ( #58, #157, #332, #68, #193, #136, #81, #208 ) ) ;
#203 = DIRECTION ( 'NONE',  ( -0.0000000000000000000, 1.000000000000000000, -0.0000000000000000000 ) ) ;
#204 = VECTOR ( 'NONE', #123, 1000.000000000000000 ) ;
#205 = ORIENTED_EDGE ( 'NONE', *, *, #132, .F. ) ;
#206 = VECTOR ( 'NONE', #51, 1000.000000000000000 ) ;
#207 = CARTESIAN_POINT ( 'NONE',  ( -6.000000000000000000, 0.7500000000000013323, -22.00000000000000000 ) ) ;
#208 = ORIENTED_EDGE ( 'NONE', *, *, #158, .F. ) ;
#209 = EDGE_CURVE ( 'NONE', #37, #190, #186, .T. ) ;
#210 = CARTESIAN_POINT ( 'NONE',  ( -6.000000000000000000, 2.000000000000001332, 0.0000000000000000000 ) ) ;
#211 = ORIENTED_EDGE ( 'NONE', *, *, #89, .T. ) ;
#212 = PRODUCT_CONTEXT ( 'NONE', #49, 'mechanical' ) ;
#213 = VECTOR ( 'NONE', #230, 1000.000000000000000 ) ;
#214 = DIRECTION ( 'NONE',  ( 0.0000000000000000000, -1.000000000000000000, 0.0000000000000000000 ) ) ;
#215 = VECTOR ( 'NONE', #36, 1000.000000000000000 ) ;
#216 = CARTESIAN_POINT ( 'NONE',  ( -6.000000000000000000, -0.7499999999999986677, -10.00000000000000000 ) ) ;
#217 = CARTESIAN_POINT ( 'NONE',  ( 114.0000000000000000, -1.999999999999998668, -10.00000000000000000 ) ) ;
#218 = CARTESIAN_POINT ( 'NONE',  ( 114.0000000000000000, 2.000000000000001332, 0.0000000000000000000 ) ) ;
#219 = ORIENTED_EDGE ( 'NONE', *, *, #194, .F. ) ;
#220 = DIRECTION ( 'NONE',  ( 0.0000000000000000000, 0.0000000000000000000, 1.000000000000000000 ) ) ;
#221 = CARTESIAN_POINT ( 'NONE',  ( 114.0000000000000000, -0.7499999999999986677, -10.00000000000000000 ) ) ;
#222 = DIRECTION ( 'NONE',  ( -0.0000000000000000000, -0.0000000000000000000, -1.000000000000000000 ) ) ;
#223 = FACE_OUTER_BOUND ( 'NONE', #33, .T. ) ;
#224 =( GEOMETRIC_REPRESENTATION_CONTEXT ( 3 ) GLOBAL_UNCERTAINTY_ASSIGNED_CONTEXT ( ( #262 ) ) GLOBAL_UNIT_ASSIGNED_CONTEXT ( ( #167, #17, #326 ) ) REPRESENTATION_CONTEXT ( 'NONE', 'WORKASPACE' ) );
#225 = ORIENTED_EDGE ( 'NONE', *, *, #175, .F. ) ;
#226 = VERTEX_POINT ( 'NONE', #231 ) ;
#227 = LINE ( 'NONE', #134, #83 ) ;
#228 =( NAMED_UNIT ( * ) SI_UNIT ( $, .STERADIAN. ) SOLID_ANGLE_UNIT ( ) );
#229 = EDGE_CURVE ( 'NONE', #239, #37, #176, .T. ) ;
#230 = DIRECTION ( 'NONE',  ( -1.000000000000000000, -0.0000000000000000000, -0.0000000000000000000 ) ) ;
#231 = CARTESIAN_POINT ( 'NONE',  ( 114.0000000000000000, 0.7500000000000013323, -22.00000000000000000 ) ) ;
#232 = ORIENTED_EDGE ( 'NONE', *, *, #151, .F. ) ;
#233 = PLANE ( 'NONE',  #117 ) ;
#234 = ORIENTED_EDGE ( 'NONE', *, *, #197, .T. ) ;
#235 = LINE ( 'NONE', #270, #102 ) ;
#236 = DIRECTION ( 'NONE',  ( 0.0000000000000000000, 0.0000000000000000000, 1.000000000000000000 ) ) ;
#237 = CARTESIAN_POINT ( 'NONE',  ( 114.0000000000000000, 0.0000000000000000000, 0.0000000000000000000 ) ) ;
#238 = CARTESIAN_POINT ( 'NONE',  ( 114.0000000000000000, -0.7499999999999986677, -22.00000000000000000 ) ) ;
#239 = VERTEX_POINT ( 'NONE', #333 ) ;
#240 = PRESENTATION_LAYER_ASSIGNMENT (  '', '', ( #322 ) ) ;
#241 = PRODUCT ( '191727', '191727', '', ( #212 ) ) ;
#242 = DIRECTION ( 'NONE',  ( 0.0000000000000000000, 0.0000000000000000000, 1.000000000000000000 ) ) ;
#243 = ADVANCED_FACE ( 'NONE', ( #146 ), #233, .F. ) ;
#244 = ORIENTED_EDGE ( 'NONE', *, *, #89, .F. ) ;
#245 = CARTESIAN_POINT ( 'NONE',  ( 114.0000000000000000, -1.999999999999998668, -10.00000000000000000 ) ) ;
#246 = VERTEX_POINT ( 'NONE', #7 ) ;
#247 = VECTOR ( 'NONE', #294, 1000.000000000000000 ) ;
#248 = EDGE_CURVE ( 'NONE', #330, #239, #42, .T. ) ;
#249 = FACE_OUTER_BOUND ( 'NONE', #90, .T. ) ;
#250 = EDGE_CURVE ( 'NONE', #13, #41, #116, .T. ) ;
#251 =( GEOMETRIC_REPRESENTATION_CONTEXT ( 3 ) GLOBAL_UNCERTAINTY_ASSIGNED_CONTEXT ( ( #252 ) ) GLOBAL_UNIT_ASSIGNED_CONTEXT ( ( #121, #26, #228 ) ) REPRESENTATION_CONTEXT ( 'NONE', 'WORKASPACE' ) );
#252 = UNCERTAINTY_MEASURE_WITH_UNIT (LENGTH_MEASURE( 1.000000000000000082E-05 ), #121, 'distance_accuracy_value', 'NONE');
#253 = DIRECTION ( 'NONE',  ( -0.0000000000000000000, 0.0000000000000000000, 1.000000000000000000 ) ) ;
#254 = LINE ( 'NONE', #191, #87 ) ;
#255 = DIRECTION ( 'NONE',  ( -0.0000000000000000000, 1.000000000000000000, -0.0000000000000000000 ) ) ;
#256 = FILL_AREA_STYLE_COLOUR ( '', #168 ) ;
#257 = ORIENTED_EDGE ( 'NONE', *, *, #126, .F. ) ;
#258 = AXIS2_PLACEMENT_3D ( 'NONE', #5, #80, #278 ) ;
#259 = CARTESIAN_POINT ( 'NONE',  ( 114.0000000000000000, -0.7499999999999986677, -22.00000000000000000 ) ) ;
#260 = DIRECTION ( 'NONE',  ( 0.0000000000000000000, 0.0000000000000000000, -1.000000000000000000 ) ) ;
#261 = ORIENTED_EDGE ( 'NONE', *, *, #248, .T. ) ;
#262 = UNCERTAINTY_MEASURE_WITH_UNIT (LENGTH_MEASURE( 1.000000000000000082E-05 ), #167, 'distance_accuracy_value', 'NONE');
#263 = VECTOR ( 'NONE', #101, 1000.000000000000000 ) ;
#264 = VECTOR ( 'NONE', #222, 1000.000000000000000 ) ;
#265 = CARTESIAN_POINT ( 'NONE',  ( 114.0000000000000000, 2.000000000000001332, 0.0000000000000000000 ) ) ;
#266 = DIRECTION ( 'NONE',  ( -1.000000000000000000, 0.0000000000000000000, 0.0000000000000000000 ) ) ;
#267 = EDGE_LOOP ( 'NONE', ( #304, #291, #169, #257 ) ) ;
#268 = DIRECTION ( 'NONE',  ( 0.0000000000000000000, 0.0000000000000000000, 1.000000000000000000 ) ) ;
#269 = CARTESIAN_POINT ( 'NONE',  ( 114.0000000000000000, 2.000000000000001332, -10.00000000000000000 ) ) ;
#270 = CARTESIAN_POINT ( 'NONE',  ( 114.0000000000000000, 0.7500000000000013323, -22.00000000000000000 ) ) ;
#271 = CARTESIAN_POINT ( 'NONE',  ( -6.000000000000000000, -1.999999999999998668, 0.0000000000000000000 ) ) ;
#272 = VECTOR ( 'NONE', #286, 1000.000000000000000 ) ;
#273 = FACE_OUTER_BOUND ( 'NONE', #23, .T. ) ;
#274 = VERTEX_POINT ( 'NONE', #45 ) ;
#275 = AXIS2_PLACEMENT_3D ( 'NONE', #221, #86, #137 ) ;
#276 = PLANE ( 'NONE',  #258 ) ;
#277 = ORIENTED_EDGE ( 'NONE', *, *, #164, .F. ) ;
#278 = DIRECTION ( 'NONE',  ( 1.000000000000000000, 0.0000000000000000000, 0.0000000000000000000 ) ) ;
#279 = VECTOR ( 'NONE', #220, 1000.000000000000000 ) ;
#280 = VECTOR ( 'NONE', #325, 1000.000000000000000 ) ;
#281 = EDGE_CURVE ( 'NONE', #41, #61, #130, .T. ) ;
#282 = DIRECTION ( 'NONE',  ( 0.0000000000000000000, -1.000000000000000000, 0.0000000000000000000 ) ) ;
#283 = CARTESIAN_POINT ( 'NONE',  ( -6.000000000000000000, 2.000000000000001332, -10.00000000000000000 ) ) ;
#284 = PLANE ( 'NONE',  #92 ) ;
#285 = APPLICATION_CONTEXT ( 'automotive_design' ) ;
#286 = DIRECTION ( 'NONE',  ( 0.0000000000000000000, 0.0000000000000000000, -1.000000000000000000 ) ) ;
#287 = ORIENTED_EDGE ( 'NONE', *, *, #185, .T. ) ;
#288 = PRESENTATION_STYLE_ASSIGNMENT (( #328 ) ) ;
#289 = AXIS2_PLACEMENT_3D ( 'NONE', #217, #115, #62 ) ;
#290 = ADVANCED_BREP_SHAPE_REPRESENTATION ( '191727', ( #75, #135 ), #251 ) ;
#291 = ORIENTED_EDGE ( 'NONE', *, *, #158, .T. ) ;
#292 = PLANE ( 'NONE',  #275 ) ;
#293 = LINE ( 'NONE', #161, #309 ) ;
#294 = DIRECTION ( 'NONE',  ( 0.0000000000000000000, -1.000000000000000000, 0.0000000000000000000 ) ) ;
#295 = PRODUCT_DEFINITION_CONTEXT ( 'detailed design', #285, 'design' ) ;
#296 = DIRECTION ( 'NONE',  ( -1.000000000000000000, -0.0000000000000000000, -0.0000000000000000000 ) ) ;
#297 = VERTEX_POINT ( 'NONE', #145 ) ;
#298 = CARTESIAN_POINT ( 'NONE',  ( 114.0000000000000000, -1.999999999999998668, -10.00000000000000000 ) ) ;
#299 = ORIENTED_EDGE ( 'NONE', *, *, #197, .F. ) ;
#300 = FACE_OUTER_BOUND ( 'NONE', #312, .T. ) ;
#301 = VECTOR ( 'NONE', #260, 1000.000000000000000 ) ;
#302 = ADVANCED_FACE ( 'NONE', ( #307 ), #276, .F. ) ;
#303 = EDGE_LOOP ( 'NONE', ( #287, #261, #142, #244 ) ) ;
#304 = ORIENTED_EDGE ( 'NONE', *, *, #327, .T. ) ;
#305 = EDGE_CURVE ( 'NONE', #297, #61, #50, .T. ) ;
#306 = ORIENTED_EDGE ( 'NONE', *, *, #34, .T. ) ;
#307 = FACE_OUTER_BOUND ( 'NONE', #303, .T. ) ;
#308 = VERTEX_POINT ( 'NONE', #76 ) ;
#309 = VECTOR ( 'NONE', #163, 1000.000000000000000 ) ;
#310 = FILL_AREA_STYLE ('',( #256 ) ) ;
#311 = CARTESIAN_POINT ( 'NONE',  ( 114.0000000000000000, -0.7499999999999986677, -10.00000000000000000 ) ) ;
#312 = EDGE_LOOP ( 'NONE', ( #234, #72, #200, #70 ) ) ;
#313 = AXIS2_PLACEMENT_3D ( 'NONE', #315, #282, #140 ) ;
#314 = CARTESIAN_POINT ( 'NONE',  ( -6.000000000000000000, 0.7500000000000013323, -10.00000000000000000 ) ) ;
#315 = CARTESIAN_POINT ( 'NONE',  ( 114.0000000000000000, 0.7500000000000013323, -22.00000000000000000 ) ) ;
#316 = ORIENTED_EDGE ( 'NONE', *, *, #305, .T. ) ;
#317 = LINE ( 'NONE', #12, #279 ) ;
#318 = VECTOR ( 'NONE', #66, 1000.000000000000000 ) ;
#319 = DIRECTION ( 'NONE',  ( -1.000000000000000000, 0.0000000000000000000, -0.0000000000000000000 ) ) ;
#320 = CARTESIAN_POINT ( 'NONE',  ( 114.0000000000000000, 0.7500000000000013323, -10.00000000000000000 ) ) ;
#321 = EDGE_LOOP ( 'NONE', ( #143, #188, #329, #74, #141, #159, #211, #84 ) ) ;
#322 = STYLED_ITEM ( 'NONE', ( #199 ), #290 ) ;
#323 = FILL_AREA_STYLE ('',( #165 ) ) ;
#324 = VECTOR ( 'NONE', #296, 1000.000000000000000 ) ;
#325 = DIRECTION ( 'NONE',  ( -0.0000000000000000000, -0.0000000000000000000, -1.000000000000000000 ) ) ;
#326 =( NAMED_UNIT ( * ) SI_UNIT ( $, .STERADIAN. ) SOLID_ANGLE_UNIT ( ) );
#327 = EDGE_CURVE ( 'NONE', #274, #190, #8, .T. ) ;
#328 = SURFACE_STYLE_USAGE ( .BOTH. , #114 ) ;
#329 = ORIENTED_EDGE ( 'NONE', *, *, #164, .T. ) ;
#330 = VERTEX_POINT ( 'NONE', #314 ) ;
#331 = MECHANICAL_DESIGN_GEOMETRIC_PRESENTATION_REPRESENTATION (  '', ( #22 ), #224 ) ;
#332 = ORIENTED_EDGE ( 'NONE', *, *, #248, .F. ) ;
#333 = CARTESIAN_POINT ( 'NONE',  ( -6.000000000000000000, 2.000000000000001332, -10.00000000000000000 ) ) ;
#334 =( NAMED_UNIT ( * ) SI_UNIT ( $, .STERADIAN. ) SOLID_ANGLE_UNIT ( ) );
ENDSEC;
END-ISO-10303-21;
