ISO-10303-21;
HEADER;
FILE_DESCRIPTION (( 'STEP AP214' ),
    '1' );
FILE_NAME ('191834.STEP',
    '2020-02-13T11:26:59',
    ( '' ),
    ( '' ),
    'SwSTEP 2.0',
    'SolidWorks 2018',
    '' );
FILE_SCHEMA (( 'AUTOMOTIVE_DESIGN' ));
ENDSEC;

DATA;
#1 = VECTOR ( 'NONE', #31, 1000.000000000000000 ) ;
#2 = EDGE_LOOP ( 'NONE', ( #229, #125, #320, #8 ) ) ;
#3 = ORIENTED_EDGE ( 'NONE', *, *, #235, .T. ) ;
#4 = UNCERTAINTY_MEASURE_WITH_UNIT (LENGTH_MEASURE( 1.000000000000000082E-05 ), #241, 'distance_accuracy_value', 'NONE');
#5 = FACE_OUTER_BOUND ( 'NONE', #319, .T. ) ;
#6 = ORIENTED_EDGE ( 'NONE', *, *, #132, .F. ) ;
#7 = VECTOR ( 'NONE', #300, 1000.000000000000000 ) ;
#8 = ORIENTED_EDGE ( 'NONE', *, *, #265, .F. ) ;
#9 = CARTESIAN_POINT ( 'NONE',  ( 102.0000000000000142, -0.7499999999999986677, -22.00000000000000000 ) ) ;
#10 = PRODUCT_RELATED_PRODUCT_CATEGORY ( 'part', '', ( #304 ) ) ;
#11 = AXIS2_PLACEMENT_3D ( 'NONE', #9, #61, #236 ) ;
#12 = PLANE ( 'NONE',  #117 ) ;
#13 = DIRECTION ( 'NONE',  ( 1.000000000000000000, 0.0000000000000000000, 0.0000000000000000000 ) ) ;
#14 = ORIENTED_EDGE ( 'NONE', *, *, #33, .F. ) ;
#15 = ORIENTED_EDGE ( 'NONE', *, *, #33, .T. ) ;
#16 = DIRECTION ( 'NONE',  ( -0.0000000000000000000, 0.0000000000000000000, 1.000000000000000000 ) ) ;
#17 = DIRECTION ( 'NONE',  ( 0.0000000000000000000, -1.000000000000000000, 0.0000000000000000000 ) ) ;
#18 = ADVANCED_FACE ( 'NONE', ( #269 ), #159, .F. ) ;
#19 = CARTESIAN_POINT ( 'NONE',  ( -6.000000000000000000, -0.7499999999999986677, -22.00000000000000000 ) ) ;
#20 = LINE ( 'NONE', #101, #7 ) ;
#21 = CARTESIAN_POINT ( 'NONE',  ( -6.000000000000000000, -0.7499999999999986677, -10.00000000000000000 ) ) ;
#22 = ORIENTED_EDGE ( 'NONE', *, *, #140, .F. ) ;
#23 = DIRECTION ( 'NONE',  ( -1.000000000000000000, -0.0000000000000000000, -0.0000000000000000000 ) ) ;
#24 = ADVANCED_FACE ( 'NONE', ( #198 ), #94, .F. ) ;
#25 = CARTESIAN_POINT ( 'NONE',  ( -6.000000000000000000, -1.999999999999998668, -10.00000000000000000 ) ) ;
#26 = EDGE_LOOP ( 'NONE', ( #302, #232, #246, #22, #14, #6, #58, #278 ) ) ;
#27 = ORIENTED_EDGE ( 'NONE', *, *, #221, .T. ) ;
#28 =( NAMED_UNIT ( * ) PLANE_ANGLE_UNIT ( ) SI_UNIT ( $, .RADIAN. ) );
#29 = CARTESIAN_POINT ( 'NONE',  ( 102.0000000000000142, 2.000000000000001332, 0.0000000000000000000 ) ) ;
#30 = ADVANCED_FACE ( 'NONE', ( #134 ), #188, .F. ) ;
#31 = DIRECTION ( 'NONE',  ( -0.0000000000000000000, -0.0000000000000000000, -1.000000000000000000 ) ) ;
#32 = VECTOR ( 'NONE', #97, 1000.000000000000000 ) ;
#33 = EDGE_CURVE ( 'NONE', #199, #167, #155, .T. ) ;
#34 = PRESENTATION_STYLE_ASSIGNMENT (( #205 ) ) ;
#35 = ORIENTED_EDGE ( 'NONE', *, *, #110, .T. ) ;
#36 = STYLED_ITEM ( 'NONE', ( #34 ), #169 ) ;
#37 = LINE ( 'NONE', #75, #129 ) ;
#38 = ORIENTED_EDGE ( 'NONE', *, *, #102, .F. ) ;
#39 = PLANE ( 'NONE',  #92 ) ;
#40 = LINE ( 'NONE', #293, #307 ) ;
#41 = ORIENTED_EDGE ( 'NONE', *, *, #262, .T. ) ;
#42 = ADVANCED_FACE ( 'NONE', ( #330 ), #39, .F. ) ;
#43 = EDGE_CURVE ( 'NONE', #70, #224, #289, .T. ) ;
#44 = DIRECTION ( 'NONE',  ( 1.000000000000000000, 0.0000000000000000000, 0.0000000000000000000 ) ) ;
#45 = DIRECTION ( 'NONE',  ( -1.000000000000000000, -0.0000000000000000000, -0.0000000000000000000 ) ) ;
#46 = VECTOR ( 'NONE', #53, 1000.000000000000000 ) ;
#47 = VERTEX_POINT ( 'NONE', #68 ) ;
#48 = DIRECTION ( 'NONE',  ( -0.0000000000000000000, 1.000000000000000000, -0.0000000000000000000 ) ) ;
#49 = CARTESIAN_POINT ( 'NONE',  ( 102.0000000000000142, 0.7500000000000013323, -22.00000000000000000 ) ) ;
#50 = LINE ( 'NONE', #331, #206 ) ;
#51 = CARTESIAN_POINT ( 'NONE',  ( 102.0000000000000142, 0.7500000000000013323, -22.00000000000000000 ) ) ;
#52 = EDGE_LOOP ( 'NONE', ( #308, #15, #130, #290 ) ) ;
#53 = DIRECTION ( 'NONE',  ( -1.000000000000000000, -0.0000000000000000000, -0.0000000000000000000 ) ) ;
#54 = AXIS2_PLACEMENT_3D ( 'NONE', #281, #251, #197 ) ;
#55 = PRODUCT_DEFINITION_SHAPE ( 'NONE', 'NONE',  #60 ) ;
#56 = DIRECTION ( 'NONE',  ( -1.000000000000000000, -0.0000000000000000000, -0.0000000000000000000 ) ) ;
#57 = VECTOR ( 'NONE', #99, 1000.000000000000000 ) ;
#58 = ORIENTED_EDGE ( 'NONE', *, *, #157, .F. ) ;
#59 = ORIENTED_EDGE ( 'NONE', *, *, #157, .T. ) ;
#60 = PRODUCT_DEFINITION ( 'UNKNOWN', '', #275, #322 ) ;
#61 = DIRECTION ( 'NONE',  ( 0.0000000000000000000, 0.0000000000000000000, 1.000000000000000000 ) ) ;
#62 = FACE_OUTER_BOUND ( 'NONE', #208, .T. ) ;
#63 = COLOUR_RGB ( '',0.7921568627450980005, 0.8196078431372548767, 0.9333333333333333481 ) ;
#64 = EDGE_LOOP ( 'NONE', ( #181, #83, #311, #211 ) ) ;
#65 = DIRECTION ( 'NONE',  ( 0.0000000000000000000, -0.0000000000000000000, 1.000000000000000000 ) ) ;
#66 = MANIFOLD_SOLID_BREP ( 'Aufsatz-Linear austragen1', #182 ) ;
#67 = EDGE_CURVE ( 'NONE', #163, #199, #40, .T. ) ;
#68 = CARTESIAN_POINT ( 'NONE',  ( 102.0000000000000142, -0.7499999999999986677, -10.00000000000000000 ) ) ;
#69 = PLANE ( 'NONE',  #323 ) ;
#70 = VERTEX_POINT ( 'NONE', #136 ) ;
#71 = DIRECTION ( 'NONE',  ( 0.0000000000000000000, 1.000000000000000000, 0.0000000000000000000 ) ) ;
#72 = ADVANCED_FACE ( 'NONE', ( #150 ), #12, .F. ) ;
#73 = DIRECTION ( 'NONE',  ( 0.0000000000000000000, 0.0000000000000000000, -1.000000000000000000 ) ) ;
#74 = PRESENTATION_LAYER_ASSIGNMENT (  '', '', ( #36 ) ) ;
#75 = CARTESIAN_POINT ( 'NONE',  ( 102.0000000000000142, 2.000000000000001332, -10.00000000000000000 ) ) ;
#76 = DIRECTION ( 'NONE',  ( -0.0000000000000000000, 1.000000000000000000, -0.0000000000000000000 ) ) ;
#77 = LINE ( 'NONE', #279, #263 ) ;
#78 = CARTESIAN_POINT ( 'NONE',  ( 102.0000000000000142, 0.7500000000000013323, -22.00000000000000000 ) ) ;
#79 = CARTESIAN_POINT ( 'NONE',  ( -6.000000000000000000, -0.7499999999999986677, -10.00000000000000000 ) ) ;
#80 = CARTESIAN_POINT ( 'NONE',  ( 0.0000000000000000000, 0.0000000000000000000, 0.0000000000000000000 ) ) ;
#81 = FILL_AREA_STYLE_COLOUR ( '', #219 ) ;
#82 = VECTOR ( 'NONE', #189, 1000.000000000000000 ) ;
#83 = ORIENTED_EDGE ( 'NONE', *, *, #243, .T. ) ;
#84 = EDGE_CURVE ( 'NONE', #282, #234, #138, .T. ) ;
#85 =( NAMED_UNIT ( * ) SI_UNIT ( $, .STERADIAN. ) SOLID_ANGLE_UNIT ( ) );
#86 = CARTESIAN_POINT ( 'NONE',  ( -6.000000000000000000, 0.0000000000000000000, 0.0000000000000000000 ) ) ;
#87 = ADVANCED_FACE ( 'NONE', ( #5 ), #96, .F. ) ;
#88 = LINE ( 'NONE', #21, #318 ) ;
#89 = VECTOR ( 'NONE', #71, 1000.000000000000000 ) ;
#90 = ORIENTED_EDGE ( 'NONE', *, *, #43, .T. ) ;
#91 = ORIENTED_EDGE ( 'NONE', *, *, #235, .F. ) ;
#92 = AXIS2_PLACEMENT_3D ( 'NONE', #242, #113, #65 ) ;
#93 = VECTOR ( 'NONE', #238, 1000.000000000000000 ) ;
#94 = PLANE ( 'NONE',  #286 ) ;
#95 = FILL_AREA_STYLE_COLOUR ( '', #63 ) ;
#96 = PLANE ( 'NONE',  #131 ) ;
#97 = DIRECTION ( 'NONE',  ( 0.0000000000000000000, 0.0000000000000000000, 1.000000000000000000 ) ) ;
#98 = CARTESIAN_POINT ( 'NONE',  ( 102.0000000000000142, 2.000000000000001332, 0.0000000000000000000 ) ) ;
#99 = DIRECTION ( 'NONE',  ( 0.0000000000000000000, 0.0000000000000000000, 1.000000000000000000 ) ) ;
#100 = CARTESIAN_POINT ( 'NONE',  ( -6.000000000000000000, 2.000000000000001332, 0.0000000000000000000 ) ) ;
#101 = CARTESIAN_POINT ( 'NONE',  ( 102.0000000000000142, -0.7499999999999986677, -10.00000000000000000 ) ) ;
#102 = EDGE_CURVE ( 'NONE', #282, #260, #214, .T. ) ;
#103 = PRESENTATION_STYLE_ASSIGNMENT (( #119 ) ) ;
#104 = DIRECTION ( 'NONE',  ( 0.0000000000000000000, 0.0000000000000000000, 1.000000000000000000 ) ) ;
#105 = LINE ( 'NONE', #149, #1 ) ;
#106 = CARTESIAN_POINT ( 'NONE',  ( 102.0000000000000142, 2.000000000000001332, -10.00000000000000000 ) ) ;
#107 = LINE ( 'NONE', #146, #46 ) ;
#108 = LINE ( 'NONE', #215, #32 ) ;
#109 = ORIENTED_EDGE ( 'NONE', *, *, #262, .F. ) ;
#110 = EDGE_CURVE ( 'NONE', #257, #203, #108, .T. ) ;
#111 = ADVANCED_FACE ( 'NONE', ( #62 ), #69, .F. ) ;
#112 = UNCERTAINTY_MEASURE_WITH_UNIT (LENGTH_MEASURE( 1.000000000000000082E-05 ), #180, 'distance_accuracy_value', 'NONE');
#113 = DIRECTION ( 'NONE',  ( -0.0000000000000000000, 1.000000000000000000, 0.0000000000000000000 ) ) ;
#114 = LINE ( 'NONE', #106, #312 ) ;
#115 =( NAMED_UNIT ( * ) SI_UNIT ( $, .STERADIAN. ) SOLID_ANGLE_UNIT ( ) );
#116 = VERTEX_POINT ( 'NONE', #190 ) ;
#117 = AXIS2_PLACEMENT_3D ( 'NONE', #98, #139, #217 ) ;
#118 = CARTESIAN_POINT ( 'NONE',  ( 102.0000000000000142, 2.000000000000001332, 0.0000000000000000000 ) ) ;
#119 = SURFACE_STYLE_USAGE ( .BOTH. , #135 ) ;
#120 = ORIENTED_EDGE ( 'NONE', *, *, #183, .F. ) ;
#121 = CARTESIAN_POINT ( 'NONE',  ( -6.000000000000000000, 0.7500000000000013323, -22.00000000000000000 ) ) ;
#122 = EDGE_CURVE ( 'NONE', #234, #124, #154, .T. ) ;
#123 = PLANE ( 'NONE',  #201 ) ;
#124 = VERTEX_POINT ( 'NONE', #327 ) ;
#125 = ORIENTED_EDGE ( 'NONE', *, *, #280, .T. ) ;
#126 =( NAMED_UNIT ( * ) PLANE_ANGLE_UNIT ( ) SI_UNIT ( $, .RADIAN. ) );
#127 = VECTOR ( 'NONE', #142, 1000.000000000000000 ) ;
#128 = DIRECTION ( 'NONE',  ( 1.000000000000000000, 0.0000000000000000000, 0.0000000000000000000 ) ) ;
#129 = VECTOR ( 'NONE', #305, 1000.000000000000000 ) ;
#130 = ORIENTED_EDGE ( 'NONE', *, *, #272, .F. ) ;
#131 = AXIS2_PLACEMENT_3D ( 'NONE', #141, #16, #13 ) ;
#132 = EDGE_CURVE ( 'NONE', #116, #199, #88, .T. ) ;
#133 = VECTOR ( 'NONE', #45, 1000.000000000000000 ) ;
#134 = FACE_OUTER_BOUND ( 'NONE', #2, .T. ) ;
#135 = SURFACE_SIDE_STYLE ('',( #207 ) ) ;
#136 = CARTESIAN_POINT ( 'NONE',  ( 102.0000000000000142, -1.999999999999998668, -10.00000000000000000 ) ) ;
#137 = CARTESIAN_POINT ( 'NONE',  ( 102.0000000000000142, 2.000000000000001332, 0.0000000000000000000 ) ) ;
#138 = LINE ( 'NONE', #118, #231 ) ;
#139 = DIRECTION ( 'NONE',  ( 0.0000000000000000000, 0.0000000000000000000, -1.000000000000000000 ) ) ;
#140 = EDGE_CURVE ( 'NONE', #167, #191, #233, .T. ) ;
#141 = CARTESIAN_POINT ( 'NONE',  ( 102.0000000000000142, -0.7499999999999986677, -10.00000000000000000 ) ) ;
#142 = DIRECTION ( 'NONE',  ( 0.0000000000000000000, -1.000000000000000000, 0.0000000000000000000 ) ) ;
#143 = DIRECTION ( 'NONE',  ( 0.0000000000000000000, 0.0000000000000000000, 1.000000000000000000 ) ) ;
#144 = LINE ( 'NONE', #303, #249 ) ;
#145 = ORIENTED_EDGE ( 'NONE', *, *, #210, .T. ) ;
#146 = CARTESIAN_POINT ( 'NONE',  ( 102.0000000000000142, 0.7500000000000013323, -10.00000000000000000 ) ) ;
#147 = ADVANCED_FACE ( 'NONE', ( #301 ), #123, .F. ) ;
#148 = CARTESIAN_POINT ( 'NONE',  ( -6.000000000000000000, 2.000000000000001332, -10.00000000000000000 ) ) ;
#149 = CARTESIAN_POINT ( 'NONE',  ( -6.000000000000000000, -1.999999999999998668, -10.00000000000000000 ) ) ;
#150 = FACE_OUTER_BOUND ( 'NONE', #64, .T. ) ;
#151 = APPLICATION_CONTEXT ( 'automotive_design' ) ;
#152 =( NAMED_UNIT ( * ) SI_UNIT ( $, .STERADIAN. ) SOLID_ANGLE_UNIT ( ) );
#153 = PRESENTATION_LAYER_ASSIGNMENT (  '', '', ( #299 ) ) ;
#154 = LINE ( 'NONE', #270, #133 ) ;
#155 = LINE ( 'NONE', #298, #89 ) ;
#156 = ORIENTED_EDGE ( 'NONE', *, *, #176, .T. ) ;
#157 = EDGE_CURVE ( 'NONE', #224, #116, #166, .T. ) ;
#158 = ORIENTED_EDGE ( 'NONE', *, *, #67, .F. ) ;
#159 = PLANE ( 'NONE',  #11 ) ;
#160 = DIRECTION ( 'NONE',  ( 0.0000000000000000000, -0.0000000000000000000, 1.000000000000000000 ) ) ;
#161 = UNCERTAINTY_MEASURE_WITH_UNIT (LENGTH_MEASURE( 1.000000000000000082E-05 ), #258, 'distance_accuracy_value', 'NONE');
#162 = EDGE_LOOP ( 'NONE', ( #225, #296, #158, #120 ) ) ;
#163 = VERTEX_POINT ( 'NONE', #223 ) ;
#164 = DIRECTION ( 'NONE',  ( -1.000000000000000000, -0.0000000000000000000, -0.0000000000000000000 ) ) ;
#165 = CARTESIAN_POINT ( 'NONE',  ( 102.0000000000000142, 2.000000000000001332, -10.00000000000000000 ) ) ;
#166 = LINE ( 'NONE', #79, #276 ) ;
#167 = VERTEX_POINT ( 'NONE', #200 ) ;
#168 =( GEOMETRIC_REPRESENTATION_CONTEXT ( 3 ) GLOBAL_UNCERTAINTY_ASSIGNED_CONTEXT ( ( #4 ) ) GLOBAL_UNIT_ASSIGNED_CONTEXT ( ( #241, #294, #115 ) ) REPRESENTATION_CONTEXT ( 'NONE', 'WORKASPACE' ) );
#169 = ADVANCED_BREP_SHAPE_REPRESENTATION ( '191834', ( #66, #253 ), #213 ) ;
#170 = CARTESIAN_POINT ( 'NONE',  ( 102.0000000000000142, 0.7500000000000013323, -10.00000000000000000 ) ) ;
#171 = CARTESIAN_POINT ( 'NONE',  ( 102.0000000000000142, -1.999999999999998668, 0.0000000000000000000 ) ) ;
#172 = VECTOR ( 'NONE', #48, 1000.000000000000000 ) ;
#173 = ORIENTED_EDGE ( 'NONE', *, *, #309, .F. ) ;
#174 = CARTESIAN_POINT ( 'NONE',  ( -6.000000000000000000, 2.000000000000001332, -10.00000000000000000 ) ) ;
#175 = ADVANCED_FACE ( 'NONE', ( #334 ), #245, .F. ) ;
#176 = EDGE_CURVE ( 'NONE', #70, #47, #329, .T. ) ;
#177 = APPLICATION_CONTEXT ( 'automotive_design' ) ;
#178 = FACE_OUTER_BOUND ( 'NONE', #26, .T. ) ;
#179 = ORIENTED_EDGE ( 'NONE', *, *, #110, .F. ) ;
#180 =( LENGTH_UNIT ( ) NAMED_UNIT ( * ) SI_UNIT ( .MILLI., .METRE. ) );
#181 = ORIENTED_EDGE ( 'NONE', *, *, #102, .T. ) ;
#182 = CLOSED_SHELL ( 'NONE', ( #72, #30, #87, #42, #18, #147, #24, #111, #175, #284 ) ) ;
#183 = EDGE_CURVE ( 'NONE', #47, #163, #20, .T. ) ;
#184 = EDGE_LOOP ( 'NONE', ( #314, #261, #156, #240, #273, #35, #27, #3 ) ) ;
#185 = MECHANICAL_DESIGN_GEOMETRIC_PRESENTATION_REPRESENTATION (  '', ( #299 ), #168 ) ;
#186 = EDGE_LOOP ( 'NONE', ( #41, #145, #173, #187 ) ) ;
#187 = ORIENTED_EDGE ( 'NONE', *, *, #221, .F. ) ;
#188 = PLANE ( 'NONE',  #291 ) ;
#189 = DIRECTION ( 'NONE',  ( -1.000000000000000000, -0.0000000000000000000, -0.0000000000000000000 ) ) ;
#190 = CARTESIAN_POINT ( 'NONE',  ( -6.000000000000000000, -0.7499999999999986677, -10.00000000000000000 ) ) ;
#191 = VERTEX_POINT ( 'NONE', #306 ) ;
#192 = EDGE_CURVE ( 'NONE', #163, #257, #259, .T. ) ;
#193 = DIRECTION ( 'NONE',  ( 0.0000000000000000000, -0.0000000000000000000, -1.000000000000000000 ) ) ;
#194 = CARTESIAN_POINT ( 'NONE',  ( -6.000000000000000000, 2.000000000000001332, -10.00000000000000000 ) ) ;
#195 = CARTESIAN_POINT ( 'NONE',  ( -6.000000000000000000, 2.000000000000001332, 0.0000000000000000000 ) ) ;
#196 = LINE ( 'NONE', #194, #256 ) ;
#197 = DIRECTION ( 'NONE',  ( 0.0000000000000000000, 0.0000000000000000000, 1.000000000000000000 ) ) ;
#198 = FACE_OUTER_BOUND ( 'NONE', #186, .T. ) ;
#199 = VERTEX_POINT ( 'NONE', #19 ) ;
#200 = CARTESIAN_POINT ( 'NONE',  ( -6.000000000000000000, 0.7500000000000013323, -22.00000000000000000 ) ) ;
#201 = AXIS2_PLACEMENT_3D ( 'NONE', #51, #218, #248 ) ;
#202 = PLANE ( 'NONE',  #292 ) ;
#203 = VERTEX_POINT ( 'NONE', #170 ) ;
#204 = MECHANICAL_DESIGN_GEOMETRIC_PRESENTATION_REPRESENTATION (  '', ( #36 ), #313 ) ;
#205 = SURFACE_STYLE_USAGE ( .BOTH. , #254 ) ;
#206 = VECTOR ( 'NONE', #23, 1000.000000000000000 ) ;
#207 = SURFACE_STYLE_FILL_AREA ( #321 ) ;
#208 = EDGE_LOOP ( 'NONE', ( #250, #316, #38, #91 ) ) ;
#209 = VERTEX_POINT ( 'NONE', #148 ) ;
#210 = EDGE_CURVE ( 'NONE', #191, #209, #196, .T. ) ;
#211 = ORIENTED_EDGE ( 'NONE', *, *, #84, .F. ) ;
#212 = DIRECTION ( 'NONE',  ( 0.0000000000000000000, 1.000000000000000000, 0.0000000000000000000 ) ) ;
#213 =( GEOMETRIC_REPRESENTATION_CONTEXT ( 3 ) GLOBAL_UNCERTAINTY_ASSIGNED_CONTEXT ( ( #161 ) ) GLOBAL_UNIT_ASSIGNED_CONTEXT ( ( #258, #28, #152 ) ) REPRESENTATION_CONTEXT ( 'NONE', 'WORKASPACE' ) );
#214 = LINE ( 'NONE', #137, #82 ) ;
#215 = CARTESIAN_POINT ( 'NONE',  ( 102.0000000000000142, 0.7500000000000013323, -22.00000000000000000 ) ) ;
#216 = VERTEX_POINT ( 'NONE', #277 ) ;
#217 = DIRECTION ( 'NONE',  ( -1.000000000000000000, 0.0000000000000000000, -0.0000000000000000000 ) ) ;
#218 = DIRECTION ( 'NONE',  ( 0.0000000000000000000, -1.000000000000000000, 0.0000000000000000000 ) ) ;
#219 = COLOUR_RGB ( '',0.7921568627450980005, 0.8196078431372548767, 0.9333333333333333481 ) ;
#220 = ORIENTED_EDGE ( 'NONE', *, *, #176, .F. ) ;
#221 = EDGE_CURVE ( 'NONE', #203, #216, #37, .T. ) ;
#222 = CARTESIAN_POINT ( 'NONE',  ( 102.0000000000000142, -0.7499999999999986677, -22.00000000000000000 ) ) ;
#223 = CARTESIAN_POINT ( 'NONE',  ( 102.0000000000000142, -0.7499999999999986677, -22.00000000000000000 ) ) ;
#224 = VERTEX_POINT ( 'NONE', #25 ) ;
#225 = ORIENTED_EDGE ( 'NONE', *, *, #237, .T. ) ;
#226 = DIRECTION ( 'NONE',  ( -1.000000000000000000, -0.0000000000000000000, -0.0000000000000000000 ) ) ;
#227 = DIRECTION ( 'NONE',  ( 0.0000000000000000000, 0.0000000000000000000, 1.000000000000000000 ) ) ;
#228 = EDGE_CURVE ( 'NONE', #209, #260, #325, .T. ) ;
#229 = ORIENTED_EDGE ( 'NONE', *, *, #122, .T. ) ;
#230 = SURFACE_STYLE_FILL_AREA ( #283 ) ;
#231 = VECTOR ( 'NONE', #297, 1000.000000000000000 ) ;
#232 = ORIENTED_EDGE ( 'NONE', *, *, #228, .F. ) ;
#233 = LINE ( 'NONE', #121, #244 ) ;
#234 = VERTEX_POINT ( 'NONE', #171 ) ;
#235 = EDGE_CURVE ( 'NONE', #216, #282, #144, .T. ) ;
#236 = DIRECTION ( 'NONE',  ( 1.000000000000000000, 0.0000000000000000000, -0.0000000000000000000 ) ) ;
#237 = EDGE_CURVE ( 'NONE', #47, #116, #50, .T. ) ;
#238 = DIRECTION ( 'NONE',  ( -1.000000000000000000, -0.0000000000000000000, -0.0000000000000000000 ) ) ;
#239 = LINE ( 'NONE', #100, #127 ) ;
#240 = ORIENTED_EDGE ( 'NONE', *, *, #183, .T. ) ;
#241 =( LENGTH_UNIT ( ) NAMED_UNIT ( * ) SI_UNIT ( .MILLI., .METRE. ) );
#242 = CARTESIAN_POINT ( 'NONE',  ( 102.0000000000000142, -0.7499999999999986677, -10.00000000000000000 ) ) ;
#243 = EDGE_CURVE ( 'NONE', #260, #124, #239, .T. ) ;
#244 = VECTOR ( 'NONE', #328, 1000.000000000000000 ) ;
#245 = PLANE ( 'NONE',  #54 ) ;
#246 = ORIENTED_EDGE ( 'NONE', *, *, #210, .F. ) ;
#247 = DIRECTION ( 'NONE',  ( 0.0000000000000000000, 1.000000000000000000, 0.0000000000000000000 ) ) ;
#248 = DIRECTION ( 'NONE',  ( 0.0000000000000000000, -0.0000000000000000000, -1.000000000000000000 ) ) ;
#249 = VECTOR ( 'NONE', #143, 1000.000000000000000 ) ;
#250 = ORIENTED_EDGE ( 'NONE', *, *, #309, .T. ) ;
#251 = DIRECTION ( 'NONE',  ( -1.000000000000000000, 0.0000000000000000000, 0.0000000000000000000 ) ) ;
#252 = APPLICATION_PROTOCOL_DEFINITION ( 'draft international standard', 'automotive_design', 1998, #151 ) ;
#253 = AXIS2_PLACEMENT_3D ( 'NONE', #80, #104, #128 ) ;
#254 = SURFACE_SIDE_STYLE ('',( #230 ) ) ;
#255 = APPLICATION_PROTOCOL_DEFINITION ( 'draft international standard', 'automotive_design', 1998, #177 ) ;
#256 = VECTOR ( 'NONE', #332, 1000.000000000000000 ) ;
#257 = VERTEX_POINT ( 'NONE', #78 ) ;
#258 =( LENGTH_UNIT ( ) NAMED_UNIT ( * ) SI_UNIT ( .MILLI., .METRE. ) );
#259 = LINE ( 'NONE', #222, #266 ) ;
#260 = VERTEX_POINT ( 'NONE', #195 ) ;
#261 = ORIENTED_EDGE ( 'NONE', *, *, #265, .T. ) ;
#262 = EDGE_CURVE ( 'NONE', #203, #191, #107, .T. ) ;
#263 = VECTOR ( 'NONE', #333, 1000.000000000000000 ) ;
#264 = ORIENTED_EDGE ( 'NONE', *, *, #272, .T. ) ;
#265 = EDGE_CURVE ( 'NONE', #234, #70, #77, .T. ) ;
#266 = VECTOR ( 'NONE', #247, 1000.000000000000000 ) ;
#267 = ORIENTED_EDGE ( 'NONE', *, *, #140, .T. ) ;
#268 = DIRECTION ( 'NONE',  ( -0.0000000000000000000, 0.0000000000000000000, 1.000000000000000000 ) ) ;
#269 = FACE_OUTER_BOUND ( 'NONE', #52, .T. ) ;
#270 = CARTESIAN_POINT ( 'NONE',  ( 102.0000000000000142, -1.999999999999998668, 0.0000000000000000000 ) ) ;
#271 = CARTESIAN_POINT ( 'NONE',  ( 102.0000000000000142, -1.999999999999998668, -10.00000000000000000 ) ) ;
#272 = EDGE_CURVE ( 'NONE', #257, #167, #287, .T. ) ;
#273 = ORIENTED_EDGE ( 'NONE', *, *, #192, .T. ) ;
#274 = CARTESIAN_POINT ( 'NONE',  ( 102.0000000000000142, -0.7499999999999986677, -10.00000000000000000 ) ) ;
#275 = PRODUCT_DEFINITION_FORMATION_WITH_SPECIFIED_SOURCE ( 'ANY', '', #304, .NOT_KNOWN. ) ;
#276 = VECTOR ( 'NONE', #76, 1000.000000000000000 ) ;
#277 = CARTESIAN_POINT ( 'NONE',  ( 102.0000000000000142, 2.000000000000001332, -10.00000000000000000 ) ) ;
#278 = ORIENTED_EDGE ( 'NONE', *, *, #280, .F. ) ;
#279 = CARTESIAN_POINT ( 'NONE',  ( 102.0000000000000142, -1.999999999999998668, -10.00000000000000000 ) ) ;
#280 = EDGE_CURVE ( 'NONE', #124, #224, #105, .T. ) ;
#281 = CARTESIAN_POINT ( 'NONE',  ( 102.0000000000000142, 0.0000000000000000000, 0.0000000000000000000 ) ) ;
#282 = VERTEX_POINT ( 'NONE', #29 ) ;
#283 = FILL_AREA_STYLE ('',( #81 ) ) ;
#284 = ADVANCED_FACE ( 'NONE', ( #178 ), #202, .T. ) ;
#285 = PRODUCT_CONTEXT ( 'NONE', #177, 'mechanical' ) ;
#286 = AXIS2_PLACEMENT_3D ( 'NONE', #317, #268, #44 ) ;
#287 = LINE ( 'NONE', #49, #315 ) ;
#288 = ORIENTED_EDGE ( 'NONE', *, *, #237, .F. ) ;
#289 = LINE ( 'NONE', #271, #93 ) ;
#290 = ORIENTED_EDGE ( 'NONE', *, *, #192, .F. ) ;
#291 = AXIS2_PLACEMENT_3D ( 'NONE', #324, #212, #160 ) ;
#292 = AXIS2_PLACEMENT_3D ( 'NONE', #86, #310, #227 ) ;
#293 = CARTESIAN_POINT ( 'NONE',  ( 102.0000000000000142, -0.7499999999999986677, -22.00000000000000000 ) ) ;
#294 =( NAMED_UNIT ( * ) PLANE_ANGLE_UNIT ( ) SI_UNIT ( $, .RADIAN. ) );
#295 = SHAPE_DEFINITION_REPRESENTATION ( #55, #169 ) ;
#296 = ORIENTED_EDGE ( 'NONE', *, *, #132, .T. ) ;
#297 = DIRECTION ( 'NONE',  ( 0.0000000000000000000, -1.000000000000000000, 0.0000000000000000000 ) ) ;
#298 = CARTESIAN_POINT ( 'NONE',  ( -6.000000000000000000, -0.7499999999999986677, -22.00000000000000000 ) ) ;
#299 = STYLED_ITEM ( 'NONE', ( #103 ), #66 ) ;
#300 = DIRECTION ( 'NONE',  ( 0.0000000000000000000, 0.0000000000000000000, -1.000000000000000000 ) ) ;
#301 = FACE_OUTER_BOUND ( 'NONE', #326, .T. ) ;
#302 = ORIENTED_EDGE ( 'NONE', *, *, #243, .F. ) ;
#303 = CARTESIAN_POINT ( 'NONE',  ( 102.0000000000000142, 2.000000000000001332, -10.00000000000000000 ) ) ;
#304 = PRODUCT ( '191834', '191834', '', ( #285 ) ) ;
#305 = DIRECTION ( 'NONE',  ( -0.0000000000000000000, 1.000000000000000000, -0.0000000000000000000 ) ) ;
#306 = CARTESIAN_POINT ( 'NONE',  ( -6.000000000000000000, 0.7500000000000013323, -10.00000000000000000 ) ) ;
#307 = VECTOR ( 'NONE', #164, 1000.000000000000000 ) ;
#308 = ORIENTED_EDGE ( 'NONE', *, *, #67, .T. ) ;
#309 = EDGE_CURVE ( 'NONE', #216, #209, #114, .T. ) ;
#310 = DIRECTION ( 'NONE',  ( -1.000000000000000000, 0.0000000000000000000, 0.0000000000000000000 ) ) ;
#311 = ORIENTED_EDGE ( 'NONE', *, *, #122, .F. ) ;
#312 = VECTOR ( 'NONE', #56, 1000.000000000000000 ) ;
#313 =( GEOMETRIC_REPRESENTATION_CONTEXT ( 3 ) GLOBAL_UNCERTAINTY_ASSIGNED_CONTEXT ( ( #112 ) ) GLOBAL_UNIT_ASSIGNED_CONTEXT ( ( #180, #126, #85 ) ) REPRESENTATION_CONTEXT ( 'NONE', 'WORKASPACE' ) );
#314 = ORIENTED_EDGE ( 'NONE', *, *, #84, .T. ) ;
#315 = VECTOR ( 'NONE', #226, 1000.000000000000000 ) ;
#316 = ORIENTED_EDGE ( 'NONE', *, *, #228, .T. ) ;
#317 = CARTESIAN_POINT ( 'NONE',  ( 102.0000000000000142, 2.000000000000001332, -10.00000000000000000 ) ) ;
#318 = VECTOR ( 'NONE', #73, 1000.000000000000000 ) ;
#319 = EDGE_LOOP ( 'NONE', ( #90, #59, #288, #220 ) ) ;
#320 = ORIENTED_EDGE ( 'NONE', *, *, #43, .F. ) ;
#321 = FILL_AREA_STYLE ('',( #95 ) ) ;
#322 = PRODUCT_DEFINITION_CONTEXT ( 'detailed design', #151, 'design' ) ;
#323 = AXIS2_PLACEMENT_3D ( 'NONE', #165, #17, #193 ) ;
#324 = CARTESIAN_POINT ( 'NONE',  ( 102.0000000000000142, -1.999999999999998668, -10.00000000000000000 ) ) ;
#325 = LINE ( 'NONE', #174, #57 ) ;
#326 = EDGE_LOOP ( 'NONE', ( #264, #267, #109, #179 ) ) ;
#327 = CARTESIAN_POINT ( 'NONE',  ( -6.000000000000000000, -1.999999999999998668, 0.0000000000000000000 ) ) ;
#328 = DIRECTION ( 'NONE',  ( 0.0000000000000000000, 0.0000000000000000000, 1.000000000000000000 ) ) ;
#329 = LINE ( 'NONE', #274, #172 ) ;
#330 = FACE_OUTER_BOUND ( 'NONE', #162, .T. ) ;
#331 = CARTESIAN_POINT ( 'NONE',  ( 102.0000000000000142, -0.7499999999999986677, -10.00000000000000000 ) ) ;
#332 = DIRECTION ( 'NONE',  ( -0.0000000000000000000, 1.000000000000000000, -0.0000000000000000000 ) ) ;
#333 = DIRECTION ( 'NONE',  ( -0.0000000000000000000, -0.0000000000000000000, -1.000000000000000000 ) ) ;
#334 = FACE_OUTER_BOUND ( 'NONE', #184, .T. ) ;
ENDSEC;
END-ISO-10303-21;
