ISO-10303-21;
HEADER;
FILE_DESCRIPTION (( 'STEP AP214' ),
    '1' );
FILE_NAME ('191828.STEP',
    '2020-02-13T11:25:51',
    ( '' ),
    ( '' ),
    'SwSTEP 2.0',
    'SolidWorks 2018',
    '' );
FILE_SCHEMA (( 'AUTOMOTIVE_DESIGN' ));
ENDSEC;

DATA;
#1 = DIRECTION ( 'NONE',  ( 1.000000000000000000, 0.0000000000000000000, 0.0000000000000000000 ) ) ;
#2 = APPLICATION_PROTOCOL_DEFINITION ( 'draft international standard', 'automotive_design', 1998, #306 ) ;
#3 = LINE ( 'NONE', #45, #84 ) ;
#4 = ORIENTED_EDGE ( 'NONE', *, *, #296, .T. ) ;
#5 = FACE_OUTER_BOUND ( 'NONE', #302, .T. ) ;
#6 = DIRECTION ( 'NONE',  ( 0.0000000000000000000, 0.0000000000000000000, -1.000000000000000000 ) ) ;
#7 = PRODUCT_DEFINITION_SHAPE ( 'NONE', 'NONE',  #68 ) ;
#8 = CARTESIAN_POINT ( 'NONE',  ( -6.000000000000000000, -1.999999999999998668, -10.00000000000000000 ) ) ;
#9 = MANIFOLD_SOLID_BREP ( 'Aufsatz-Linear austragen1', #115 ) ;
#10 = CARTESIAN_POINT ( 'NONE',  ( 90.00000000000000000, 2.000000000000001332, -10.00000000000000000 ) ) ;
#11 = ORIENTED_EDGE ( 'NONE', *, *, #268, .F. ) ;
#12 = LINE ( 'NONE', #53, #270 ) ;
#13 = AXIS2_PLACEMENT_3D ( 'NONE', #141, #168, #320 ) ;
#14 = CARTESIAN_POINT ( 'NONE',  ( -6.000000000000000000, 0.7500000000000013323, -10.00000000000000000 ) ) ;
#15 = ORIENTED_EDGE ( 'NONE', *, *, #233, .F. ) ;
#16 = CARTESIAN_POINT ( 'NONE',  ( 90.00000000000000000, -0.7499999999999986677, -22.00000000000000000 ) ) ;
#17 = EDGE_CURVE ( 'NONE', #94, #243, #267, .T. ) ;
#18 = ADVANCED_FACE ( 'NONE', ( #120 ), #329, .F. ) ;
#19 = ORIENTED_EDGE ( 'NONE', *, *, #154, .T. ) ;
#20 = FACE_OUTER_BOUND ( 'NONE', #46, .T. ) ;
#21 = DIRECTION ( 'NONE',  ( 0.0000000000000000000, 0.0000000000000000000, 1.000000000000000000 ) ) ;
#22 = ORIENTED_EDGE ( 'NONE', *, *, #149, .F. ) ;
#23 = STYLED_ITEM ( 'NONE', ( #140 ), #9 ) ;
#24 = SHAPE_DEFINITION_REPRESENTATION ( #7, #128 ) ;
#25 = VERTEX_POINT ( 'NONE', #155 ) ;
#26 = VERTEX_POINT ( 'NONE', #127 ) ;
#27 = FACE_OUTER_BOUND ( 'NONE', #109, .T. ) ;
#28 = CARTESIAN_POINT ( 'NONE',  ( 90.00000000000000000, -0.7499999999999986677, -10.00000000000000000 ) ) ;
#29 = ORIENTED_EDGE ( 'NONE', *, *, #310, .T. ) ;
#30 = CARTESIAN_POINT ( 'NONE',  ( -6.000000000000000000, 2.000000000000001332, 0.0000000000000000000 ) ) ;
#31 = STYLED_ITEM ( 'NONE', ( #247 ), #128 ) ;
#32 = VECTOR ( 'NONE', #116, 1000.000000000000000 ) ;
#33 = DIRECTION ( 'NONE',  ( -1.000000000000000000, -0.0000000000000000000, -0.0000000000000000000 ) ) ;
#34 = CARTESIAN_POINT ( 'NONE',  ( 0.0000000000000000000, 0.0000000000000000000, 0.0000000000000000000 ) ) ;
#35 = ADVANCED_FACE ( 'NONE', ( #246 ), #298, .F. ) ;
#36 = ORIENTED_EDGE ( 'NONE', *, *, #174, .F. ) ;
#37 = DIRECTION ( 'NONE',  ( 0.0000000000000000000, 0.0000000000000000000, 1.000000000000000000 ) ) ;
#38 =( GEOMETRIC_REPRESENTATION_CONTEXT ( 3 ) GLOBAL_UNCERTAINTY_ASSIGNED_CONTEXT ( ( #161 ) ) GLOBAL_UNIT_ASSIGNED_CONTEXT ( ( #180, #248, #179 ) ) REPRESENTATION_CONTEXT ( 'NONE', 'WORKASPACE' ) );
#39 = ORIENTED_EDGE ( 'NONE', *, *, #92, .F. ) ;
#40 = EDGE_CURVE ( 'NONE', #230, #181, #3, .T. ) ;
#41 = FACE_OUTER_BOUND ( 'NONE', #271, .T. ) ;
#42 = ORIENTED_EDGE ( 'NONE', *, *, #56, .T. ) ;
#43 = LINE ( 'NONE', #294, #261 ) ;
#44 = CARTESIAN_POINT ( 'NONE',  ( 90.00000000000000000, -1.999999999999998668, -10.00000000000000000 ) ) ;
#45 = CARTESIAN_POINT ( 'NONE',  ( -6.000000000000000000, 2.000000000000001332, 0.0000000000000000000 ) ) ;
#46 = EDGE_LOOP ( 'NONE', ( #108, #228, #15, #39 ) ) ;
#47 = ORIENTED_EDGE ( 'NONE', *, *, #144, .T. ) ;
#48 = DIRECTION ( 'NONE',  ( -1.000000000000000000, 0.0000000000000000000, 0.0000000000000000000 ) ) ;
#49 = VECTOR ( 'NONE', #232, 1000.000000000000000 ) ;
#50 = EDGE_CURVE ( 'NONE', #297, #26, #203, .T. ) ;
#51 = LINE ( 'NONE', #253, #75 ) ;
#52 = CARTESIAN_POINT ( 'NONE',  ( 90.00000000000000000, -0.7499999999999986677, -10.00000000000000000 ) ) ;
#53 = CARTESIAN_POINT ( 'NONE',  ( 90.00000000000000000, -0.7499999999999986677, -10.00000000000000000 ) ) ;
#54 = ORIENTED_EDGE ( 'NONE', *, *, #275, .T. ) ;
#55 = CARTESIAN_POINT ( 'NONE',  ( 90.00000000000000000, 0.7500000000000013323, -22.00000000000000000 ) ) ;
#56 = EDGE_CURVE ( 'NONE', #206, #215, #197, .T. ) ;
#57 = CARTESIAN_POINT ( 'NONE',  ( -6.000000000000000000, 0.0000000000000000000, 0.0000000000000000000 ) ) ;
#58 = CARTESIAN_POINT ( 'NONE',  ( -6.000000000000000000, -0.7499999999999986677, -10.00000000000000000 ) ) ;
#59 = DIRECTION ( 'NONE',  ( -0.0000000000000000000, -0.0000000000000000000, -1.000000000000000000 ) ) ;
#60 = DIRECTION ( 'NONE',  ( 0.0000000000000000000, 1.000000000000000000, 0.0000000000000000000 ) ) ;
#61 = ADVANCED_FACE ( 'NONE', ( #20 ), #226, .F. ) ;
#62 = ORIENTED_EDGE ( 'NONE', *, *, #111, .T. ) ;
#63 = LINE ( 'NONE', #78, #49 ) ;
#64 = ORIENTED_EDGE ( 'NONE', *, *, #133, .F. ) ;
#65 = CARTESIAN_POINT ( 'NONE',  ( 90.00000000000000000, 0.0000000000000000000, 0.0000000000000000000 ) ) ;
#66 = ORIENTED_EDGE ( 'NONE', *, *, #92, .T. ) ;
#67 = DIRECTION ( 'NONE',  ( 0.0000000000000000000, 0.0000000000000000000, 1.000000000000000000 ) ) ;
#68 = PRODUCT_DEFINITION ( 'UNKNOWN', '', #121, #212 ) ;
#69 = CARTESIAN_POINT ( 'NONE',  ( -6.000000000000000000, 2.000000000000001332, -10.00000000000000000 ) ) ;
#70 = LINE ( 'NONE', #82, #251 ) ;
#71 = CARTESIAN_POINT ( 'NONE',  ( 90.00000000000000000, 2.000000000000001332, -10.00000000000000000 ) ) ;
#72 =( NAMED_UNIT ( * ) SI_UNIT ( $, .STERADIAN. ) SOLID_ANGLE_UNIT ( ) );
#73 = EDGE_CURVE ( 'NONE', #98, #230, #43, .T. ) ;
#74 = ORIENTED_EDGE ( 'NONE', *, *, #221, .F. ) ;
#75 = VECTOR ( 'NONE', #214, 1000.000000000000000 ) ;
#76 =( NAMED_UNIT ( * ) PLANE_ANGLE_UNIT ( ) SI_UNIT ( $, .RADIAN. ) );
#77 = ORIENTED_EDGE ( 'NONE', *, *, #327, .F. ) ;
#78 = CARTESIAN_POINT ( 'NONE',  ( -6.000000000000000000, -1.999999999999998668, -10.00000000000000000 ) ) ;
#79 = PLANE ( 'NONE',  #333 ) ;
#80 = SURFACE_STYLE_FILL_AREA ( #277 ) ;
#81 = DIRECTION ( 'NONE',  ( -1.000000000000000000, 0.0000000000000000000, -0.0000000000000000000 ) ) ;
#82 = CARTESIAN_POINT ( 'NONE',  ( -6.000000000000000000, 2.000000000000001332, -10.00000000000000000 ) ) ;
#83 = ORIENTED_EDGE ( 'NONE', *, *, #163, .T. ) ;
#84 = VECTOR ( 'NONE', #201, 1000.000000000000000 ) ;
#85 = AXIS2_PLACEMENT_3D ( 'NONE', #316, #210, #283 ) ;
#86 = DIRECTION ( 'NONE',  ( -1.000000000000000000, -0.0000000000000000000, -0.0000000000000000000 ) ) ;
#87 = DIRECTION ( 'NONE',  ( 0.0000000000000000000, 0.0000000000000000000, 1.000000000000000000 ) ) ;
#88 = ORIENTED_EDGE ( 'NONE', *, *, #178, .F. ) ;
#89 = CARTESIAN_POINT ( 'NONE',  ( 90.00000000000000000, -0.7499999999999986677, -22.00000000000000000 ) ) ;
#90 = FACE_OUTER_BOUND ( 'NONE', #313, .T. ) ;
#91 = ORIENTED_EDGE ( 'NONE', *, *, #233, .T. ) ;
#92 = EDGE_CURVE ( 'NONE', #291, #94, #240, .T. ) ;
#93 = LINE ( 'NONE', #16, #151 ) ;
#94 = VERTEX_POINT ( 'NONE', #299 ) ;
#95 = LINE ( 'NONE', #89, #177 ) ;
#96 = CARTESIAN_POINT ( 'NONE',  ( -6.000000000000000000, -0.7499999999999986677, -22.00000000000000000 ) ) ;
#97 = DIRECTION ( 'NONE',  ( 0.0000000000000000000, 1.000000000000000000, 0.0000000000000000000 ) ) ;
#98 = VERTEX_POINT ( 'NONE', #69 ) ;
#99 = SURFACE_STYLE_USAGE ( .BOTH. , #131 ) ;
#100 = LINE ( 'NONE', #143, #32 ) ;
#101 = UNCERTAINTY_MEASURE_WITH_UNIT (LENGTH_MEASURE( 1.000000000000000082E-05 ), #205, 'distance_accuracy_value', 'NONE');
#102 =( GEOMETRIC_REPRESENTATION_CONTEXT ( 3 ) GLOBAL_UNCERTAINTY_ASSIGNED_CONTEXT ( ( #195 ) ) GLOBAL_UNIT_ASSIGNED_CONTEXT ( ( #159, #76, #72 ) ) REPRESENTATION_CONTEXT ( 'NONE', 'WORKASPACE' ) );
#103 = ORIENTED_EDGE ( 'NONE', *, *, #296, .F. ) ;
#104 = VECTOR ( 'NONE', #87, 1000.000000000000000 ) ;
#105 = PLANE ( 'NONE',  #125 ) ;
#106 = DIRECTION ( 'NONE',  ( 0.0000000000000000000, -0.0000000000000000000, 1.000000000000000000 ) ) ;
#107 = PRESENTATION_LAYER_ASSIGNMENT (  '', '', ( #31 ) ) ;
#108 = ORIENTED_EDGE ( 'NONE', *, *, #221, .T. ) ;
#109 = EDGE_LOOP ( 'NONE', ( #334, #42, #22, #36 ) ) ;
#110 = LINE ( 'NONE', #259, #315 ) ;
#111 = EDGE_CURVE ( 'NONE', #119, #26, #158, .T. ) ;
#112 = DIRECTION ( 'NONE',  ( -0.0000000000000000000, 1.000000000000000000, -0.0000000000000000000 ) ) ;
#113 = DIRECTION ( 'NONE',  ( 0.0000000000000000000, -1.000000000000000000, 0.0000000000000000000 ) ) ;
#114 = CARTESIAN_POINT ( 'NONE',  ( 90.00000000000000000, -1.999999999999998668, -10.00000000000000000 ) ) ;
#115 = CLOSED_SHELL ( 'NONE', ( #242, #18, #326, #237, #330, #142, #61, #146, #35, #264 ) ) ;
#116 = DIRECTION ( 'NONE',  ( 0.0000000000000000000, 0.0000000000000000000, 1.000000000000000000 ) ) ;
#117 = VECTOR ( 'NONE', #33, 1000.000000000000000 ) ;
#118 = CARTESIAN_POINT ( 'NONE',  ( -6.000000000000000000, 0.7500000000000013323, -22.00000000000000000 ) ) ;
#119 = VERTEX_POINT ( 'NONE', #192 ) ;
#120 = FACE_OUTER_BOUND ( 'NONE', #234, .T. ) ;
#121 = PRODUCT_DEFINITION_FORMATION_WITH_SPECIFIED_SOURCE ( 'ANY', '', #217, .NOT_KNOWN. ) ;
#122 = LINE ( 'NONE', #137, #117 ) ;
#123 = DIRECTION ( 'NONE',  ( -0.0000000000000000000, 1.000000000000000000, -0.0000000000000000000 ) ) ;
#124 = EDGE_LOOP ( 'NONE', ( #83, #274, #11, #176 ) ) ;
#125 = AXIS2_PLACEMENT_3D ( 'NONE', #28, #134, #106 ) ;
#126 = LINE ( 'NONE', #164, #245 ) ;
#127 = CARTESIAN_POINT ( 'NONE',  ( -6.000000000000000000, 0.7500000000000013323, -22.00000000000000000 ) ) ;
#128 = ADVANCED_BREP_SHAPE_REPRESENTATION ( '191828', ( #9, #324 ), #102 ) ;
#129 = APPLICATION_CONTEXT ( 'automotive_design' ) ;
#130 = DIRECTION ( 'NONE',  ( 0.0000000000000000000, 0.0000000000000000000, 1.000000000000000000 ) ) ;
#131 = SURFACE_SIDE_STYLE ('',( #80 ) ) ;
#132 = ORIENTED_EDGE ( 'NONE', *, *, #275, .F. ) ;
#133 = EDGE_CURVE ( 'NONE', #279, #98, #70, .T. ) ;
#134 = DIRECTION ( 'NONE',  ( -0.0000000000000000000, 1.000000000000000000, 0.0000000000000000000 ) ) ;
#135 = VECTOR ( 'NONE', #123, 1000.000000000000000 ) ;
#136 = PLANE ( 'NONE',  #85 ) ;
#137 = CARTESIAN_POINT ( 'NONE',  ( 90.00000000000000000, -0.7499999999999986677, -10.00000000000000000 ) ) ;
#138 = ORIENTED_EDGE ( 'NONE', *, *, #73, .T. ) ;
#139 = DIRECTION ( 'NONE',  ( 0.0000000000000000000, -0.0000000000000000000, -1.000000000000000000 ) ) ;
#140 = PRESENTATION_STYLE_ASSIGNMENT (( #303 ) ) ;
#141 = CARTESIAN_POINT ( 'NONE',  ( 90.00000000000000000, -0.7499999999999986677, -22.00000000000000000 ) ) ;
#142 = ADVANCED_FACE ( 'NONE', ( #295 ), #136, .F. ) ;
#143 = CARTESIAN_POINT ( 'NONE',  ( 90.00000000000000000, 0.7500000000000013323, -22.00000000000000000 ) ) ;
#144 = EDGE_CURVE ( 'NONE', #172, #169, #256, .T. ) ;
#145 = DIRECTION ( 'NONE',  ( -1.000000000000000000, -0.0000000000000000000, -0.0000000000000000000 ) ) ;
#146 = ADVANCED_FACE ( 'NONE', ( #276 ), #186, .F. ) ;
#147 = ORIENTED_EDGE ( 'NONE', *, *, #73, .F. ) ;
#148 = PRODUCT_RELATED_PRODUCT_CATEGORY ( 'part', '', ( #217 ) ) ;
#149 = EDGE_CURVE ( 'NONE', #172, #215, #122, .T. ) ;
#150 = EDGE_LOOP ( 'NONE', ( #62, #29, #74, #132 ) ) ;
#151 = VECTOR ( 'NONE', #60, 1000.000000000000000 ) ;
#152 = ORIENTED_EDGE ( 'NONE', *, *, #282, .T. ) ;
#153 = DIRECTION ( 'NONE',  ( -0.0000000000000000000, 1.000000000000000000, -0.0000000000000000000 ) ) ;
#154 = EDGE_CURVE ( 'NONE', #215, #297, #216, .T. ) ;
#155 = CARTESIAN_POINT ( 'NONE',  ( 90.00000000000000000, -1.999999999999998668, -10.00000000000000000 ) ) ;
#156 = ORIENTED_EDGE ( 'NONE', *, *, #17, .F. ) ;
#157 = DIRECTION ( 'NONE',  ( 1.000000000000000000, 0.0000000000000000000, 0.0000000000000000000 ) ) ;
#158 = LINE ( 'NONE', #55, #198 ) ;
#159 =( LENGTH_UNIT ( ) NAMED_UNIT ( * ) SI_UNIT ( .MILLI., .METRE. ) );
#160 = AXIS2_PLACEMENT_3D ( 'NONE', #285, #6, #81 ) ;
#161 = UNCERTAINTY_MEASURE_WITH_UNIT (LENGTH_MEASURE( 1.000000000000000082E-05 ), #180, 'distance_accuracy_value', 'NONE');
#162 = ORIENTED_EDGE ( 'NONE', *, *, #149, .T. ) ;
#163 = EDGE_CURVE ( 'NONE', #243, #230, #223, .T. ) ;
#164 = CARTESIAN_POINT ( 'NONE',  ( 90.00000000000000000, 2.000000000000001332, -10.00000000000000000 ) ) ;
#165 = CARTESIAN_POINT ( 'NONE',  ( 90.00000000000000000, -0.7499999999999986677, -10.00000000000000000 ) ) ;
#166 = ORIENTED_EDGE ( 'NONE', *, *, #189, .T. ) ;
#167 = VECTOR ( 'NONE', #59, 1000.000000000000000 ) ;
#168 = DIRECTION ( 'NONE',  ( 0.0000000000000000000, 0.0000000000000000000, 1.000000000000000000 ) ) ;
#169 = VERTEX_POINT ( 'NONE', #286 ) ;
#170 = LINE ( 'NONE', #118, #104 ) ;
#171 = CARTESIAN_POINT ( 'NONE',  ( 90.00000000000000000, -0.7499999999999986677, -10.00000000000000000 ) ) ;
#172 = VERTEX_POINT ( 'NONE', #165 ) ;
#173 = LINE ( 'NONE', #114, #167 ) ;
#174 = EDGE_CURVE ( 'NONE', #25, #172, #12, .T. ) ;
#175 = SURFACE_STYLE_FILL_AREA ( #332 ) ;
#176 = ORIENTED_EDGE ( 'NONE', *, *, #189, .F. ) ;
#177 = VECTOR ( 'NONE', #145, 1000.000000000000000 ) ;
#178 = EDGE_CURVE ( 'NONE', #181, #206, #63, .T. ) ;
#179 =( NAMED_UNIT ( * ) SI_UNIT ( $, .STERADIAN. ) SOLID_ANGLE_UNIT ( ) );
#180 =( LENGTH_UNIT ( ) NAMED_UNIT ( * ) SI_UNIT ( .MILLI., .METRE. ) );
#181 = VERTEX_POINT ( 'NONE', #255 ) ;
#182 = VECTOR ( 'NONE', #213, 1000.000000000000000 ) ;
#183 = APPLICATION_PROTOCOL_DEFINITION ( 'draft international standard', 'automotive_design', 1998, #129 ) ;
#184 = ORIENTED_EDGE ( 'NONE', *, *, #56, .F. ) ;
#185 = VECTOR ( 'NONE', #97, 1000.000000000000000 ) ;
#186 = PLANE ( 'NONE',  #307 ) ;
#187 = DIRECTION ( 'NONE',  ( -1.000000000000000000, -0.0000000000000000000, -0.0000000000000000000 ) ) ;
#188 = ORIENTED_EDGE ( 'NONE', *, *, #310, .F. ) ;
#189 = EDGE_CURVE ( 'NONE', #243, #222, #110, .T. ) ;
#190 = DIRECTION ( 'NONE',  ( 0.0000000000000000000, 0.0000000000000000000, -1.000000000000000000 ) ) ;
#191 = CARTESIAN_POINT ( 'NONE',  ( -6.000000000000000000, -0.7499999999999986677, -10.00000000000000000 ) ) ;
#192 = CARTESIAN_POINT ( 'NONE',  ( 90.00000000000000000, 0.7500000000000013323, -22.00000000000000000 ) ) ;
#193 = DIRECTION ( 'NONE',  ( 1.000000000000000000, 0.0000000000000000000, 0.0000000000000000000 ) ) ;
#194 =( GEOMETRIC_REPRESENTATION_CONTEXT ( 3 ) GLOBAL_UNCERTAINTY_ASSIGNED_CONTEXT ( ( #101 ) ) GLOBAL_UNIT_ASSIGNED_CONTEXT ( ( #205, #309, #252 ) ) REPRESENTATION_CONTEXT ( 'NONE', 'WORKASPACE' ) );
#195 = UNCERTAINTY_MEASURE_WITH_UNIT (LENGTH_MEASURE( 1.000000000000000082E-05 ), #159, 'distance_accuracy_value', 'NONE');
#196 = ORIENTED_EDGE ( 'NONE', *, *, #17, .T. ) ;
#197 = LINE ( 'NONE', #273, #135 ) ;
#198 = VECTOR ( 'NONE', #314, 1000.000000000000000 ) ;
#199 = DIRECTION ( 'NONE',  ( -0.0000000000000000000, 0.0000000000000000000, 1.000000000000000000 ) ) ;
#200 = COLOUR_RGB ( '',0.7921568627450980005, 0.8196078431372548767, 0.9333333333333333481 ) ;
#201 = DIRECTION ( 'NONE',  ( 0.0000000000000000000, -1.000000000000000000, 0.0000000000000000000 ) ) ;
#202 = ORIENTED_EDGE ( 'NONE', *, *, #111, .F. ) ;
#203 = LINE ( 'NONE', #96, #185 ) ;
#204 = DIRECTION ( 'NONE',  ( 0.0000000000000000000, 1.000000000000000000, 0.0000000000000000000 ) ) ;
#205 =( LENGTH_UNIT ( ) NAMED_UNIT ( * ) SI_UNIT ( .MILLI., .METRE. ) );
#206 = VERTEX_POINT ( 'NONE', #8 ) ;
#207 = ORIENTED_EDGE ( 'NONE', *, *, #50, .T. ) ;
#208 = LINE ( 'NONE', #260, #319 ) ;
#209 = ORIENTED_EDGE ( 'NONE', *, *, #289, .F. ) ;
#210 = DIRECTION ( 'NONE',  ( 0.0000000000000000000, -1.000000000000000000, 0.0000000000000000000 ) ) ;
#211 = VECTOR ( 'NONE', #241, 1000.000000000000000 ) ;
#212 = PRODUCT_DEFINITION_CONTEXT ( 'detailed design', #129, 'design' ) ;
#213 = DIRECTION ( 'NONE',  ( -1.000000000000000000, -0.0000000000000000000, -0.0000000000000000000 ) ) ;
#214 = DIRECTION ( 'NONE',  ( -1.000000000000000000, -0.0000000000000000000, -0.0000000000000000000 ) ) ;
#215 = VERTEX_POINT ( 'NONE', #191 ) ;
#216 = LINE ( 'NONE', #58, #308 ) ;
#217 = PRODUCT ( '191828', '191828', '', ( #278 ) ) ;
#218 = PLANE ( 'NONE',  #13 ) ;
#219 = PLANE ( 'NONE',  #281 ) ;
#220 = ORIENTED_EDGE ( 'NONE', *, *, #282, .F. ) ;
#221 = EDGE_CURVE ( 'NONE', #291, #279, #51, .T. ) ;
#222 = VERTEX_POINT ( 'NONE', #280 ) ;
#223 = LINE ( 'NONE', #311, #182 ) ;
#224 = ORIENTED_EDGE ( 'NONE', *, *, #144, .F. ) ;
#225 = DIRECTION ( 'NONE',  ( 0.0000000000000000000, -0.0000000000000000000, 1.000000000000000000 ) ) ;
#226 = PLANE ( 'NONE',  #292 ) ;
#227 = CARTESIAN_POINT ( 'NONE',  ( 90.00000000000000000, 2.000000000000001332, -10.00000000000000000 ) ) ;
#228 = ORIENTED_EDGE ( 'NONE', *, *, #133, .T. ) ;
#229 = LINE ( 'NONE', #239, #211 ) ;
#230 = VERTEX_POINT ( 'NONE', #30 ) ;
#231 = AXIS2_PLACEMENT_3D ( 'NONE', #44, #204, #225 ) ;
#232 = DIRECTION ( 'NONE',  ( -0.0000000000000000000, -0.0000000000000000000, -1.000000000000000000 ) ) ;
#233 = EDGE_CURVE ( 'NONE', #94, #98, #126, .T. ) ;
#234 = EDGE_LOOP ( 'NONE', ( #266, #305, #209, #77 ) ) ;
#235 = PLANE ( 'NONE',  #160 ) ;
#236 = FACE_OUTER_BOUND ( 'NONE', #124, .T. ) ;
#237 = ADVANCED_FACE ( 'NONE', ( #41 ), #105, .F. ) ;
#238 = ORIENTED_EDGE ( 'NONE', *, *, #40, .F. ) ;
#239 = CARTESIAN_POINT ( 'NONE',  ( 90.00000000000000000, -1.999999999999998668, 0.0000000000000000000 ) ) ;
#240 = LINE ( 'NONE', #304, #323 ) ;
#241 = DIRECTION ( 'NONE',  ( -1.000000000000000000, -0.0000000000000000000, -0.0000000000000000000 ) ) ;
#242 = ADVANCED_FACE ( 'NONE', ( #236 ), #235, .F. ) ;
#243 = VERTEX_POINT ( 'NONE', #258 ) ;
#244 = MECHANICAL_DESIGN_GEOMETRIC_PRESENTATION_REPRESENTATION (  '', ( #23 ), #38 ) ;
#245 = VECTOR ( 'NONE', #187, 1000.000000000000000 ) ;
#246 = FACE_OUTER_BOUND ( 'NONE', #328, .T. ) ;
#247 = PRESENTATION_STYLE_ASSIGNMENT (( #99 ) ) ;
#248 =( NAMED_UNIT ( * ) PLANE_ANGLE_UNIT ( ) SI_UNIT ( $, .RADIAN. ) );
#249 = PRESENTATION_LAYER_ASSIGNMENT (  '', '', ( #23 ) ) ;
#250 = ORIENTED_EDGE ( 'NONE', *, *, #154, .F. ) ;
#251 = VECTOR ( 'NONE', #112, 1000.000000000000000 ) ;
#252 =( NAMED_UNIT ( * ) SI_UNIT ( $, .STERADIAN. ) SOLID_ANGLE_UNIT ( ) );
#253 = CARTESIAN_POINT ( 'NONE',  ( 90.00000000000000000, 0.7500000000000013323, -10.00000000000000000 ) ) ;
#254 = ORIENTED_EDGE ( 'NONE', *, *, #163, .F. ) ;
#255 = CARTESIAN_POINT ( 'NONE',  ( -6.000000000000000000, -1.999999999999998668, 0.0000000000000000000 ) ) ;
#256 = LINE ( 'NONE', #52, #331 ) ;
#257 = DIRECTION ( 'NONE',  ( -0.0000000000000000000, 1.000000000000000000, -0.0000000000000000000 ) ) ;
#258 = CARTESIAN_POINT ( 'NONE',  ( 90.00000000000000000, 2.000000000000001332, 0.0000000000000000000 ) ) ;
#259 = CARTESIAN_POINT ( 'NONE',  ( 90.00000000000000000, 2.000000000000001332, 0.0000000000000000000 ) ) ;
#260 = CARTESIAN_POINT ( 'NONE',  ( 90.00000000000000000, -1.999999999999998668, -10.00000000000000000 ) ) ;
#261 = VECTOR ( 'NONE', #21, 1000.000000000000000 ) ;
#262 = DIRECTION ( 'NONE',  ( -1.000000000000000000, 0.0000000000000000000, 0.0000000000000000000 ) ) ;
#263 = CARTESIAN_POINT ( 'NONE',  ( 90.00000000000000000, 0.7500000000000013323, -10.00000000000000000 ) ) ;
#264 = ADVANCED_FACE ( 'NONE', ( #5 ), #79, .T. ) ;
#265 = MECHANICAL_DESIGN_GEOMETRIC_PRESENTATION_REPRESENTATION (  '', ( #31 ), #194 ) ;
#266 = ORIENTED_EDGE ( 'NONE', *, *, #268, .T. ) ;
#267 = LINE ( 'NONE', #71, #322 ) ;
#268 = EDGE_CURVE ( 'NONE', #222, #181, #229, .T. ) ;
#269 = ORIENTED_EDGE ( 'NONE', *, *, #327, .T. ) ;
#270 = VECTOR ( 'NONE', #257, 1000.000000000000000 ) ;
#271 = EDGE_LOOP ( 'NONE', ( #162, #19, #103, #224 ) ) ;
#272 = DIRECTION ( 'NONE',  ( 0.0000000000000000000, 0.0000000000000000000, 1.000000000000000000 ) ) ;
#273 = CARTESIAN_POINT ( 'NONE',  ( -6.000000000000000000, -0.7499999999999986677, -10.00000000000000000 ) ) ;
#274 = ORIENTED_EDGE ( 'NONE', *, *, #40, .T. ) ;
#275 = EDGE_CURVE ( 'NONE', #119, #291, #100, .T. ) ;
#276 = FACE_OUTER_BOUND ( 'NONE', #321, .T. ) ;
#277 = FILL_AREA_STYLE ('',( #288 ) ) ;
#278 = PRODUCT_CONTEXT ( 'NONE', #306, 'mechanical' ) ;
#279 = VERTEX_POINT ( 'NONE', #14 ) ;
#280 = CARTESIAN_POINT ( 'NONE',  ( 90.00000000000000000, -1.999999999999998668, 0.0000000000000000000 ) ) ;
#281 = AXIS2_PLACEMENT_3D ( 'NONE', #171, #318, #193 ) ;
#282 = EDGE_CURVE ( 'NONE', #169, #119, #93, .T. ) ;
#283 = DIRECTION ( 'NONE',  ( 0.0000000000000000000, -0.0000000000000000000, -1.000000000000000000 ) ) ;
#284 = ORIENTED_EDGE ( 'NONE', *, *, #174, .T. ) ;
#285 = CARTESIAN_POINT ( 'NONE',  ( 90.00000000000000000, 2.000000000000001332, 0.0000000000000000000 ) ) ;
#286 = CARTESIAN_POINT ( 'NONE',  ( 90.00000000000000000, -0.7499999999999986677, -22.00000000000000000 ) ) ;
#287 = COLOUR_RGB ( '',0.7921568627450980005, 0.8196078431372548767, 0.9333333333333333481 ) ;
#288 = FILL_AREA_STYLE_COLOUR ( '', #200 ) ;
#289 = EDGE_CURVE ( 'NONE', #25, #206, #208, .T. ) ;
#290 = CARTESIAN_POINT ( 'NONE',  ( -6.000000000000000000, -0.7499999999999986677, -22.00000000000000000 ) ) ;
#291 = VERTEX_POINT ( 'NONE', #263 ) ;
#292 = AXIS2_PLACEMENT_3D ( 'NONE', #227, #199, #1 ) ;
#293 = ORIENTED_EDGE ( 'NONE', *, *, #50, .F. ) ;
#294 = CARTESIAN_POINT ( 'NONE',  ( -6.000000000000000000, 2.000000000000001332, -10.00000000000000000 ) ) ;
#295 = FACE_OUTER_BOUND ( 'NONE', #150, .T. ) ;
#296 = EDGE_CURVE ( 'NONE', #169, #297, #95, .T. ) ;
#297 = VERTEX_POINT ( 'NONE', #290 ) ;
#298 = PLANE ( 'NONE',  #300 ) ;
#299 = CARTESIAN_POINT ( 'NONE',  ( 90.00000000000000000, 2.000000000000001332, -10.00000000000000000 ) ) ;
#300 = AXIS2_PLACEMENT_3D ( 'NONE', #65, #48, #67 ) ;
#301 = SURFACE_SIDE_STYLE ('',( #175 ) ) ;
#302 = EDGE_LOOP ( 'NONE', ( #238, #147, #64, #188, #293, #250, #184, #88 ) ) ;
#303 = SURFACE_STYLE_USAGE ( .BOTH. , #301 ) ;
#304 = CARTESIAN_POINT ( 'NONE',  ( 90.00000000000000000, 2.000000000000001332, -10.00000000000000000 ) ) ;
#305 = ORIENTED_EDGE ( 'NONE', *, *, #178, .T. ) ;
#306 = APPLICATION_CONTEXT ( 'automotive_design' ) ;
#307 = AXIS2_PLACEMENT_3D ( 'NONE', #10, #317, #139 ) ;
#308 = VECTOR ( 'NONE', #190, 1000.000000000000000 ) ;
#309 =( NAMED_UNIT ( * ) PLANE_ANGLE_UNIT ( ) SI_UNIT ( $, .RADIAN. ) );
#310 = EDGE_CURVE ( 'NONE', #26, #279, #170, .T. ) ;
#311 = CARTESIAN_POINT ( 'NONE',  ( 90.00000000000000000, 2.000000000000001332, 0.0000000000000000000 ) ) ;
#312 = DIRECTION ( 'NONE',  ( 0.0000000000000000000, 0.0000000000000000000, -1.000000000000000000 ) ) ;
#313 = EDGE_LOOP ( 'NONE', ( #4, #207, #202, #220 ) ) ;
#314 = DIRECTION ( 'NONE',  ( -1.000000000000000000, -0.0000000000000000000, -0.0000000000000000000 ) ) ;
#315 = VECTOR ( 'NONE', #113, 1000.000000000000000 ) ;
#316 = CARTESIAN_POINT ( 'NONE',  ( 90.00000000000000000, 0.7500000000000013323, -22.00000000000000000 ) ) ;
#317 = DIRECTION ( 'NONE',  ( 0.0000000000000000000, -1.000000000000000000, 0.0000000000000000000 ) ) ;
#318 = DIRECTION ( 'NONE',  ( -0.0000000000000000000, 0.0000000000000000000, 1.000000000000000000 ) ) ;
#319 = VECTOR ( 'NONE', #86, 1000.000000000000000 ) ;
#320 = DIRECTION ( 'NONE',  ( 1.000000000000000000, 0.0000000000000000000, -0.0000000000000000000 ) ) ;
#321 = EDGE_LOOP ( 'NONE', ( #91, #138, #254, #156 ) ) ;
#322 = VECTOR ( 'NONE', #272, 1000.000000000000000 ) ;
#323 = VECTOR ( 'NONE', #153, 1000.000000000000000 ) ;
#324 = AXIS2_PLACEMENT_3D ( 'NONE', #34, #130, #157 ) ;
#325 = FILL_AREA_STYLE_COLOUR ( '', #287 ) ;
#326 = ADVANCED_FACE ( 'NONE', ( #27 ), #219, .F. ) ;
#327 = EDGE_CURVE ( 'NONE', #222, #25, #173, .T. ) ;
#328 = EDGE_LOOP ( 'NONE', ( #166, #269, #284, #47, #152, #54, #66, #196 ) ) ;
#329 = PLANE ( 'NONE',  #231 ) ;
#330 = ADVANCED_FACE ( 'NONE', ( #90 ), #218, .F. ) ;
#331 = VECTOR ( 'NONE', #312, 1000.000000000000000 ) ;
#332 = FILL_AREA_STYLE ('',( #325 ) ) ;
#333 = AXIS2_PLACEMENT_3D ( 'NONE', #57, #262, #37 ) ;
#334 = ORIENTED_EDGE ( 'NONE', *, *, #289, .T. ) ;
ENDSEC;
END-ISO-10303-21;
